Brand New - Mevsmaradonnavselvis Chords & Tabs

 

Mevsmaradonnavselvis Chords & Tabs

Brand New Chords & Tabs

Version: 1 Type: Tab 0 ratings
1 star 2 stars 3 stars 4 stars 5 stars
comments

Mevsmaradonnavselvis Tab

Here is the correct version of the song. Its an awesome song 
and is very easy

Drop D tuning

Intro/Verse
|-------------------------------
|-------------------------------
|7-7-7-6-6-6-6-6-4-4-4-2-2-2-2-2
|0-0-0-0-0-0-0-0-0-0-0-0-0-0-0-0 
|0-0-0-0-0-0-0-0-0-0-0-0-0-0-0-0
|0-0-0-0-0-0-0-0-0-0-0-0-0-0-0-0

|-------------------------------
|-------------------------------
|7-7-7-6-6-6-6-6----------------
|5-5-5-5-5-5-5-5-9-9-9-7-7-7-7-7 
|5-5-5-5-5-5-5-5-5-5-5-5-5-5-5-5
|5-5-5-5-5-5-5-5-5-5-5-5-5-5-5-5


Bridge
|---------------------------------------
|---------------------------------------
|---------------------------------------
|7-7-7-9-9-9-9-9-12-12-12-11-11-11-11-11
|4-4-4-5-5-5-5-5-9--9--9--7--7--7--7--7-
|4-4-4-5-5-5-5-5-9--9--9--7--7--7--7--7-

[ Tab from: http://www.guitartabs.cc/tabs/b/brand_new/mevsmaradonnavselvis_tab.html ]
Chorus
|--------------------------------
|--------------------------------
|--------------------------------
|11-11-11-11-11-11-11-11-11-11-11
|9--9--9--9--7--7--7--7--7--7--7-
|0--0--0--9--7--7--7--7--7--7--7-

|-------------------------
|-------------------------
|-------------------------
|7-7-7-7-11-9-9-9-9-9-9-9-
|4-5-5-5-9--7-7-7-7-7-7-7-
|4-5-5-5-9--7-7-7-7-7-7-7-

Break
|----------5------
|--------5---5----
|------7-------7--
|----0------------
|--0--------------
|0----------------

|----------5------
|--------5---5----
|------7-------5--
|----5------------
|--5--------------
|5----------------

|---------7-------
|-----------7---7-
|-----9-------9---
|---9---9---------
|-7---------------
|-----------------


End Chorus
|-----------------
|-----------------
|-----------------
|-0-9-7---4-5-7---
|-0-9-7---4-5-7---
|-0-9-7---4-5-7---

Thats all of it! As you can see its very simple yet fun to 
play! Have fun with it!
Comments