Brand New - Me Vs Maradonna Vs Elvis Chords & Tabs

 

Me Vs Maradonna Vs Elvis Chords & Tabs

Brand New Chords & Tabs

Version: 3 Type: Tab 0 ratings
1 star 2 stars 3 stars 4 stars 5 stars
comments

Me Vs Maradonna Vs Elvis Tab

   
Tabbed by: Andy Colich
E-mail: eggrollcolgate@yahoo.com
Comments: I don't think anyone on this site has tabbed this song right. So I'm doing
it, and I'm pretty sure about it. 


Tuning: (low to high) Db Ab Db Gb Bb Eb


Intro: (with chourus effects)
----------------------------------------------------
----------------------------------------------------
-7-7-7-6-6-6-6-6-4-4-4-2-2-2-2-2--------------------
-0-0-0-0-0-0-0-0-0-0-0-0-0-0-0-0-------------------- 
-0-0-0-0-0-0-0-0-0-0-0-0-0-0-0-0--------------------
-0-0-0-0-0-0-0-0-0-0-0-0-0-0-0-0--------------------

----------------------------------------------------
----------------------------------------------------
-7-7-7-6-6-6-6-6-4-4-4-2-2-2-2-2--------------------
-0-0-0-0-0-0-0-0-0-0-0-0-0-0-0-0-------------------- 
-0-0-0-0-0-0-0-0-0-0-0-0-0-0-0-0--------------------
-0-0-0-0-0-0-0-0-0-0-0-0-0-0-0-0--------------------

----------------------------------------------------
----------------------------------------------------
-7-7-7-6-6-6-6-6------------------------------------
-5-5-5-5-5-5-5-5-9-9-9-7-7-7-7-7--------------------
-5-5-5-5-5-5-5-5-5-5-5-5-5-5-5-5--------------------
-5-5-5-5-5-5-5-5-5-5-5-5-5-5-5-5--------------------

----------------------------------------------------
----------------------------------------------------
-7-7-7-6-6-6-6-6------------------------------------
-5-5-5-5-5-5-5-5-9-9-9-7-7-7-7-7--------------------
-5-5-5-5-5-5-5-5-5-5-5-5-5-5-5-5--------------------
-5-5-5-5-5-5-5-5-5-5-5-5-5-5-5-5--------------------

Verse 1: (with chourus effects)
----------------------------------------------------
----------------------------------------------------
-7-7-7-6-6-6-6-6-4-4-4-2-2-2-2-2--------------------
-0-0-0-0-0-0-0-0-0-0-0-0-0-0-0-0-------------------- 
-0-0-0-0-0-0-0-0-0-0-0-0-0-0-0-0--------------------
-0-0-0-0-0-0-0-0-0-0-0-0-0-0-0-0--------------------
"With one, or two I get used to the room"

----------------------------------------------------
----------------------------------------------------
-7-7-7-6-6-6-6-6-4-4-4-2-2-2-2-2--------------------
-0-0-0-0-0-0-0-0-0-0-0-0-0-0-0-0-------------------- 
-0-0-0-0-0-0-0-0-0-0-0-0-0-0-0-0--------------------
-0-0-0-0-0-0-0-0-0-0-0-0-0-0-0-0--------------------
"We go slow when we first make our moves"

----------------------------------------------------
----------------------------------------------------
-7-7-7-6-6-6-6-6------------------------------------
-5-5-5-5-5-5-5-5-9-9-9-7-7-7-7-7--------------------
-5-5-5-5-5-5-5-5-5-5-5-5-5-5-5-5--------------------
-5-5-5-5-5-5-5-5-5-5-5-5-5-5-5-5--------------------
"By five or six, bring you out to the car"

----------------------------------------------------
----------------------------------------------------
-7-7-7-6-6-6-6-6------------------------------------
-5-5-5-5-5-5-5-5-9-9-9-7-7-7-7-7--------------------
-5-5-5-5-5-5-5-5-5-5-5-5-5-5-5-5--------------------
-5-5-5-5-5-5-5-5-5-5-5-5-5-5-5-5--------------------
"Number nine with my head on the bar"

----------------------------------------------------
----------------------------------------------------
----------------------------------------------------
-7-7-7-9-9-9-9-9--12-12-12-11-11-11-11-11-----------
-4-4-4-5-5-5-5-5--9--9--9--7--7--7--7--7------------
-4-4-4-5-5-5-5-5--9--9--9--7--7--7--7--7------------
"And it's sad, but true"

----------------------------------------------------
----------------------------------------------------
----------------------------------------------------
-7-7-7-9-9-9-9-9--12-12-12-12-12-12-12-12-11-11-11-11-11-11-11-11-
-4-4-4-5-5-5-5-5--9--9--9--9--9--9--9--9--7--7--7--7--7--7--7--7--
-4-4-4-5-5-5-5-5--9--9--9--9--9--9--9--9--7--7--7--7--7--7--7--7--
"Out of cash, And I, owe, (I got), you"

Verse 2: (with chourus effects)
----------------------------------------------------
----------------------------------------------------
-7-7-7-6-6-6-6-6-4-4-4-2-2-2-2-2--------------------
-0-0-0-0-0-0-0-0-0-0-0-0-0-0-0-0-------------------- 
-0-0-0-0-0-0-0-0-0-0-0-0-0-0-0-0--------------------
-0-0-0-0-0-0-0-0-0-0-0-0-0-0-0-0--------------------
"Desperate desires, and unadmirable plans"

----------------------------------------------------
----------------------------------------------------
-7-7-7-6-6-6-6-6-4-4-4-2-2-2-2-2--------------------
-0-0-0-0-0-0-0-0-0-0-0-0-0-0-0-0-------------------- 
-0-0-0-0-0-0-0-0-0-0-0-0-0-0-0-0--------------------
-0-0-0-0-0-0-0-0-0-0-0-0-0-0-0-0--------------------
"My tongue will taste of gin, and malicious intent"

----------------------------------------------------
----------------------------------------------------
-7-7-7-6-6-6-6-6------------------------------------
-5-5-5-5-5-5-5-5-9-9-9-7-7-7-7-7--------------------
-5-5-5-5-5-5-5-5-5-5-5-5-5-5-5-5--------------------
-5-5-5-5-5-5-5-5-5-5-5-5-5-5-5-5--------------------
"Bring you back to the bar, get you out of the cold"

----------------------------------------------------
----------------------------------------------------
-7-7-7-6-6-6-6-6------------------------------------
-5-5-5-5-5-5-5-5-9-9-9-7-7-7-7-7--------------------
-5-5-5-5-5-5-5-5-5-5-5-5-5-5-5-5--------------------
-5-5-5-5-5-5-5-5-5-5-5-5-5-5-5-5--------------------
"A sober straight face gets you out of your clothes"

----------------------------------------------------
----------------------------------------------------
----------------------------------------------------
-7-7-7-9-9-9-9-9--12-12-12-11-11-11-11-11-----------
-4-4-4-5-5-5-5-5--9--9--9--7--7--7--7--7------------
-4-4-4-5-5-5-5-5--9--9--9--7--7--7--7--7------------
"And they're scared, that we'll know"

----------------------------------------------------
----------------------------------------------------
----------------------------------------------------
-7-7-7-9-9-9-9-9--12-12-12-12-12-12-12-12-11-11-11-11-11-11-11-11-
-4-4-4-5-5-5-5-5--9--9--9--9--9--9--9--9--7--7--7--7--7--7--7--7--
-4-4-4-5-5-5-5-5--9--9--9--9--9--9--9--9--7--7--7--7--7--7--7--7--
"All the crimes, they'll commit, who they'll kiss before they get home"

Chorus 1: (with chourus effects)
----------------------------------------------------
----------------------------------------------------
----------------------------------------------------
-11-11-11-11-11-11-11-11-11-11-11-11-11-11-11-11----
-9--9--9--9--9--9--9--9--7--7--7--7--7--7--7--7-----
-0--0--0--0--0--0--0--0--7--7--7--7--7--7--7--7-----
"I will lie awake"

----------------------------------------------------
----------------------------------------------------
----------------------------------------------------
-11-11-11-11-11-11-11-11-11-11-11-11-11-11-11-11----
-9--9--9--9--9--9--9--9--7--7--7--7--7--7--7--7-----
-0--0--0--0--0--0--0--0--7--7--7--7--7--7--7--7-----
"And lie for fun"

----------------------------------------------------
----------------------------------------------------
----------------------------------------------------
-7-7-7-7-7--9-9-9-9-9-9-9-9-------------------------
-4/5-5-5-5--7-7-7-7-7-7-7-7-------------------------
-4/5-5-5-5--7-7-7-7-7-7-7-7-------------------------
"And fake the way, I hold you"

----------------------------------------------------
----------------------------------------------------
----------------------------------------------------
-7-7-7-7-7--9-9-9-9-9-9-9-9-------------------------
-4/5-5-5-5--7-7-7-7-7-7-7-7-------------------------
-4/5-5-5-5--7-7-7-7-7-7-7-7-------------------------
"Let you fall for every empty word I say"

Verse 3: (with chourus effects)
----------------------------------------------------
----------------------------------------------------
-7-7-7-6-6-6-6-6-4-4-4-2-2-2-2-2--------------------
-0-0-0-0-0-0-0-0-0-0-0-0-0-0-0-0-------------------- 
-0-0-0-0-0-0-0-0-0-0-0-0-0-0-0-0--------------------
-0-0-0-0-0-0-0-0-0-0-0-0-0-0-0-0--------------------
"Barely concious in the door where you stand"

----------------------------------------------------
----------------------------------------------------
-7-7-7-6-6-6-6-6-4-4-4-2-2-2-2-2--------------------
-0-0-0-0-0-0-0-0-0-0-0-0-0-0-0-0-------------------- 
-0-0-0-0-0-0-0-0-0-0-0-0-0-0-0-0--------------------
-0-0-0-0-0-0-0-0-0-0-0-0-0-0-0-0--------------------
"Your eyes are fighting sleep while your mouth makes its demands"

----------------------------------------------------
----------------------------------------------------
-7-7-7-6-6-6-6-6------------------------------------
-5-5-5-5-5-5-5-5-9-9-9-7-7-7-7-7--------------------
-5-5-5-5-5-5-5-5-5-5-5-5-5-5-5-5--------------------
-5-5-5-5-5-5-5-5-5-5-5-5-5-5-5-5--------------------
"You laugh at every word trying hard to be cute"

----------------------------------------------------
----------------------------------------------------
-7-7-7-6-6-6-6-6------------------------------------
-5-5-5-5-5-5-5-5-9-9-9-7-7-7-7-7--------------------
-5-5-5-5-5-5-5-5-5-5-5-5-5-5-5-5--------------------
-5-5-5-5-5-5-5-5-5-5-5-5-5-5-5-5--------------------
"I almost feel sorry for what I'm gonna do"

----------------------------------------------------
----------------------------------------------------
----------------------------------------------------
-7-7-7-9-9-9-9-9--12-12-12-11-11-11-11-11-----------
-4-4-4-5-5-5-5-5--9--9--9--7--7--7--7--7------------
-4-4-4-5-5-5-5-5--9--9--9--7--7--7--7--7------------
"And your hair, smells of smoke"

----------------------------------------------------
----------------------------------------------------
----------------------------------------------------
-7-7-7-9-9-9-9-9--12-12-12-12-12-12-12-12-11-11-11-11-11-11-11-11-
-4-4-4-5-5-5-5-5--9--9--9--9--9--9--9--9--7--7--7--7--7--7--7--7--
-4-4-4-5-5-5-5-5--9--9--9--9--9--9--9--9--7--7--7--7--7--7--7--7--
"Who will cast, the first stone, you can sin or spend the night all alone"

Verse 4: (with chourus effects)
----------------------------------------------------
----------------------------------------------------
-7-7-7-6-6-6-6-6-4-4-4-2-2-2-2-2--------------------
-0-0-0-0-0-0-0-0-0-0-0-0-0-0-0-0-------------------- 
-0-0-0-0-0-0-0-0-0-0-0-0-0-0-0-0--------------------
-0-0-0-0-0-0-0-0-0-0-0-0-0-0-0-0--------------------
"Brass buttons on your coat hold the cold"

----------------------------------------------------
----------------------------------------------------
-7-7-7-6-6-6-6-6-4-4-4-2-2-2-2-2--------------------
-0-0-0-0-0-0-0-0-0-0-0-0-0-0-0-0-------------------- 
-0-0-0-0-0-0-0-0-0-0-0-0-0-0-0-0--------------------
-0-0-0-0-0-0-0-0-0-0-0-0-0-0-0-0--------------------
"In the shape of a heart that they cut out of stone"
[ Tab from: http://www.guitartabs.cc/tabs/b/brand_new/me_vs_maradonna_vs_elvis_tab_ver_3.html ]
----------------------------------------------------
----------------------------------------------------
-7-7-7-6-6-6-6-6------------------------------------
-5-5-5-5-5-5-5-5-9-9-9-7-7-7-7-7--------------------
-5-5-5-5-5-5-5-5-5-5-5-5-5-5-5-5--------------------
-5-5-5-5-5-5-5-5-5-5-5-5-5-5-5-5--------------------
"Your using all you looks, the you've thrown from the start"

----------------------------------------------------
----------------------------------------------------
-7-7-7-6-6-6-6-6------------------------------------
-5-5-5-5-5-5-5-5-9-9-9-7-7-7-7-7--------------------
-5-5-5-5-5-5-5-5-5-5-5-5-5-5-5-5--------------------
-5-5-5-5-5-5-5-5-5-5-5-5-5-5-5-5--------------------
"If you let me have my way I swear I'll tear you apart"

----------------------------------------------------
----------------------------------------------------
----------------------------------------------------
-7-7-7-9-9-9-9-9--12-12-12-11-11-11-11-11-----------
-4-4-4-5-5-5-5-5--9--9--9--7--7--7--7--7------------
-4-4-4-5-5-5-5-5--9--9--9--7--7--7--7--7------------
"Cuz it's all, you can be"

----------------------------------------------------
----------------------------------------------------
----------------------------------------------------
-7-7-7-9-9-9-9-9--12-12-12-12-12-12-12-12-11-11-11-11-11-11-11-11-
-4-4-4-5-5-5-5-5--9--9--9--9--9--9--9--9--7--7--7--7--7--7--7--7--
-4-4-4-5-5-5-5-5--9--9--9--9--9--9--9--9--7--7--7--7--7--7--7--7--
"You're a drunk, and you're scared, it's ladies night, all the girls drink for free"

Chorus 2: (with chourus effects)
----------------------------------------------------
----------------------------------------------------
----------------------------------------------------
-11-11-11-11-11-11-11-11-11-11-11-11-11-11-11-11----
-9--9--9--9--9--9--9--9--7--7--7--7--7--7--7--7-----
-0--0--0--0--0--0--0--0--7--7--7--7--7--7--7--7-----
"I will lie awake"

----------------------------------------------------
----------------------------------------------------
----------------------------------------------------
-11-11-11-11-11-11-11-11-11-11-11-11-11-11-11-11----
-9--9--9--9--9--9--9--9--7--7--7--7--7--7--7--7-----
-0--0--0--0--0--0--0--0--7--7--7--7--7--7--7--7-----
"And lie for fun"

----------------------------------------------------
----------------------------------------------------
----------------------------------------------------
-7-7-7-7-7--9-9-9-9-9-9-9-9-------------------------
-4/5-5-5-5--7-7-7-7-7-7-7-7-------------------------
-4/5-5-5-5--7-7-7-7-7-7-7-7-------------------------
"And fake the way, I hold you"

----------------------------------------------------
----------------------------------------------------
----------------------------------------------------
-7-7-7-7-7--9-9-9-9-9-9-9-9-------------------------
-4/5-5-5-5--7-7-7-7-7-7-7-7-------------------------
-4/5-5-5-5--7-7-7-7-7-7-7-7-------------------------
"Let you fall for every empty word I say"

Bridge: First guitar (distortion)
----------------------------------------------------
----------------------------------------------------
----------------------------------------------------
-0~-------------------------------------------------
-0~-------------------------------------------------
-0~-------------------------------------------------

----------------------------------------------------
----------------------------------------------------
----------------------------------------------------
-7~-------------------------------------------------
-7~-------------------------------------------------
-7~-------------------------------------------------

----------------------------------------------------
----------------------------------------------------
----------------------------------------------------
-0~-------------------------------------------------
-0~-------------------------------------------------
-0~-------------------------------------------------

----------------------------------------------------
----------------------------------------------------
----------------------------------------------------
-7~-------------------------------------------------
-7~-------------------------------------------------
-7~-------------------------------------------------

----------------------------------------------------
----------------------------------------------------
----------------------------------------------------
-2~------------------------5~-----------------------
-2~------------------------5~-----------------------
-2~------------------------5~-----------------------

----------------------------------------------------
----------------------------------------------------
----------------------------------------------------
-0~-------------------------------------------------
-0~-------------------------------------------------
-0~-------------------------------------------------

----------------------------------------------------
----------------------------------------------------
----------------------------------------------------
-7~-------------------------------------------------
-7~-------------------------------------------------
-7~-------------------------------------------------

----------------------------------------------------
----------------------------------------------------
----------------------------------------------------
-0~-------------------------------------------------
-0~-------------------------------------------------
-0~-------------------------------------------------

----------------------------------------------------
----------------------------------------------------
----------------------------------------------------
-7~-------------------------------------------------
-7~-------------------------------------------------
-7~-------------------------------------------------

----------------------------------------------------
----------------------------------------------------
----------------------------------------------------
-2~------------------------5~-----------------------
-2~------------------------5~-----------------------
-2~------------------------5~-----------------------


Bridge: Second guitar (clean) I got this part from another guy.
------------5-------------------5-------------------
----------5---5---------------5---5-----------------
--------7-------7-----------7------7----------------
------0-------------------0-------------------------
----0-------------------0---------------------------
--0-------------------0-----------------------------

-----------5-------------------5--------------------
-------------5-------------------5------------------
--------6------6-----------6-------6----------------
------7------------------5--------------------------
----5------------------5----------------------------
--5------------------5------------------------------

------------5-------------------5-------------------
----------5---5---------------5---5-----------------
--------7-------7-----------7------7----------------
------0-------------------0-------------------------
----0-------------------0---------------------------
--0-------------------0-----------------------------

-----------5-------------------5--------------------
-------------5-------------------5------------------
--------6------6-----------6-------6----------------
------7------------------5--------------------------
----5------------------5----------------------------
--5------------------5------------------------------

------------7--------------------5-----------------
----------7---7----------------5---5---------------
--------8-------8------------7-------7-------------
------9-----------9--------5-----------------------
----7--------------------5-------------------------
-----------------------5---------------------------

------------5-------------------5-------------------
----------5---5---------------5---5-----------------
--------7-------7-----------7------7----------------
------0-------------------0-------------------------
----0-------------------0---------------------------
--0-------------------0-----------------------------

-----------5-------------------5--------------------
-------------5-------------------5------------------
--------6------6-----------6-------6----------------
------7------------------5--------------------------
----5------------------5----------------------------
--5------------------5------------------------------

------------5-------------------5-------------------
----------5---5---------------5---5-----------------
--------7-------7-----------7------7----------------
------0-------------------0-------------------------
----0-------------------0---------------------------
--0-------------------0-----------------------------

-----------5-------------------5--------------------
-------------5-------------------5------------------
--------6------6-----------6-------6----------------
------7------------------5--------------------------
----5------------------5----------------------------
--5------------------5------------------------------

------------7--------------------5-----------------
----------7---7----------------5---5---------------
--------8-------8------------7-------7-------------
------9-----------9--------5-----------------------
----7--------------------5-------------------------
-----------------------5---------------------------

Ending: (distortion)
----------------------------------------------------
----------------------------------------------------
----------------------------------------------------
-0-0-0-9-7-7-7-7-7-7-7-7----------------------------
-0-0-0-9-7-7-7-7-7-7-7-7----------------------------
-0-0-0-9-7-7-7-7-7-7-7-7----------------------------
"I will lie awake"

----------------------------------------------------
----------------------------------------------------
----------------------------------------------------
-0-0-0-9-7-7-7-7-7-7-7-7----------------------------
-0-0-0-9-7-7-7-7-7-7-7-7----------------------------
-0-0-0-9-7-7-7-7-7-7-7-7----------------------------
"And lie for fun"

----------------------------------------------------
----------------------------------------------------
----------------------------------------------------
-4/5-5-5-5-5-*-7-7-7-7-7-7-7-7----------------------
-4/5-5-5-5-5-*-7-7-7-7-7-7-7-7----------------------
-4/5-5-5-5-5-*-7-7-7-7-7-7-7-7----------------------
            ^^^
        (harmonics)
"And fake the way, I hold you"

----------------------------------------------------
----------------------------------------------------
----------------------------------------------------
-4/5-5-5-5-5-*-7-7-7-7-7-7-7-7----------------------
-4/5-5-5-5-5-*-7-7-7-7-7-7-7-7----------------------
-4/5-5-5-5-5-*-7-7-7-7-7-7-7-7----------------------
            ^^^
        (harmonics)
"Let you fall for every empty word I say"

Repeat that again, then do the intro and fade out.

This is a long song. But easy to play.

-Andy
Comments