Brand New - Last Chance To Lose Your Keys Chords & Tabs

 

Last Chance To Lose Your Keys Chords & Tabs

Brand New Chords & Tabs

Version: 1 Type: Tab 0 ratings
1 star 2 stars 3 stars 4 stars 5 stars
comments

Last Chance To Lose Your Keys Tab

this song is in drop d tuning

Intro                       
e|---------------------    
b|---------------------    
g|----3-----5-3--------    
d|-1--3--1--5-3--------    
a|-1--1--1--3-1--------    
D|-1-----1-------------
 background guitar(very faint)-i think this is close
e|-3-----3-----3h4-6-4h3-3-1--3h4-6-4h3------
b|-------------------------------------------
g|---5-3---5-3--------------------------5-3--
d|-------------------------------------------
a|-------------------------------------------
D|-------------------------------------------
[ Tab from: http://www.guitartabs.cc/tabs/b/brand_new/last_chance_to_lose_your_keys_tab.html ]
Verses
  "i cashed in all my chips tonight..."
palm muted...listen for stumming and such
e|---------------------------
b|---------------------------
g|-8--8--5--3----------------
d|-8--8--5--3----------------
a|-6--5--3--1----------------
D|---------------------------
 background guitar...the second part of the verse is slightly different, but you
can play around with that and see what you can come up with.
e|---------------------------
b|---------------------------
g|---------------------------
d|--8-8-----8-8--------------
a|---------------------------
D|---------------------------

Pre-Chorus(also is played after chorus)
  "should've seen it all along..."
(palm mute)..once again listen for timing
e|------------------
b|------------------
g|------------------
d|--6666--8888------
a|--6666--8888------
D|--6666--8888------

Chorus
  "home on a saturday night..."
e|-----------------------
b|-----------------------
g|-----33------5533------
d|-11--33--11--5533------
a|-11--11--11--3311------
D|-11------11------------

that's pretty much it..any questions/comments/requests..email me at
fake_plastic_submarine@hotmail.com

-this is now my second tab, it's pretty close i can tell. there are some of the
background parts that i'm not sure about. so you can try and pick em up, and i'll
work on them to put them on here.
Comments