Brand New - Jude Law And Semester Abroad Acoustic Chords & Tabs

 

Jude Law And Semester Abroad Acoustic Chords & Tabs

Brand New Chords & Tabs

Version: 1 Type: Tab 0 ratings
1 star 2 stars 3 stars 4 stars 5 stars
comments

Jude Law And Semester Abroad Acoustic Tab

   
-------------------------------------------------------------------------------
          Jude Law And A Semester Abroad Acoustic - Brand New
-------------------------------------------------------------------------------
Tabbed by: jordan weissman
Email: jord3mw@aol.om

Tuning:standard (E A D G B E)

Intro (x 4)
e|--------------------------------------------------------------------------|
B|--------------------------------------------------------------------------|
G|---------99999999---------------------------------------------------------|
D|11111111-99999999-66666666-99999999---------------------------------------|
A|11111111-77777777-66666666-99999999---------------------------------------|
E|99999999-00000000-44444444-77777777---------------------------------------|

Whatever poison's in this bottle, will leave me broken sore and stiff, well its the 
at the bottom who I'm sucking out, he owes me one last wish

Verse(x 2)
Guitar One
e|--------------------------------------------------------------------------|
B|--------7p0---------------------------------------------------------------|
G|-------------------4-------4----3---44------------------------------------|
D|----6-x--------------------4----4---44----999-----------------------------|
A|4-4-.-.--------6-x---7-----x----x---xx----999-----------------------------|
E|.-.--------4-4-.-.-----4-4-4-xx-4-x-44-xx-777-----------------------------|
             . .         . .
Guitar Two
e|--------------------------------------------------------------------------|
B|--------------------------------------------------------------------------|
G|66666666------------------------------------------------------------------|
D|66666666-66666666-666666666666-999----------------------------------------|
A|44444444-66666666-666666666666-999----------------------------------------|
E|........-44444444-444444444444-777----------------------------------------|
           ........ ............ ...

So here's a present, to let you know I still exist, I hope the next boy that you kiss 
something, terribly contaigous on his lips

Pre Chorus (x 2)
Guitar One
e|--------------------------------------------------------------------------|
B|----5p4-4-----------------------------------------------------------------|
G|--------------6p4-4-------------------------------------------------------|
D|--6-----------------------------------------------------------------------|
A|4-----------6-------------------------------------------------------------|
E|----------4---------------------------------------------------------------|

Guitar Two
e|--------------------------------------------------------------------------|
B|--------------------------------------------------------------------------|
G|6666666666666666----------------------------------------------------------|
D|6666666666666666-6666666666666666-----------------------------------------|
A|4444444444444444-6666666666666666-----------------------------------------|
E|................-4444444444444444-----------------------------------------|
                   ................

I've got a plan, drink for fourty days and fourty nights, a sip for every second hand tick...

Chorus (x 2)
e|-----------------------------------0-0--------------0-0-------------------|
B|-----------------------------------0-0--------------0-0-------------------|
G|8888888888888888-9999999999999999--9-9-999999999999-9-9-999999999999------|
D|8888888888888888-9999999999999999--9-9-999999999999-9-9-999999999999------|
A|6666666666666666-7777777777777777--7-7-777777777777-6-6-666666666666------|
E|-----------------0000000000000000--0-0-000000000000-0-0-000000000000------|
                                         ............     ............
e|--------------------------------------------------------------------------|
B|--------------------------------------------------------------------------|
G|6666666666666666-4444444444444444-----------------------------------------|
D|6666666666666666-4444444444444444-----------------------------------------|
A|4444444444444444-2222222222222222-----------------------------------------|
E|--------------------------------------------------------------------------|

Second Guitar (after first half of chorus)
e|--------------------------------------------------------------------------|
B|--------------------------------------------------------------------------|
G|999-9p8-88----999-9p8-88-----999-9p8-88-8-----11-11-99-88-------88-8h9-99-|
D|----------99------------99-11----------9-----------------99-11-11---------|
A|------------11---------------------------11-11----------------------------|
E|--------------------------------------------------------------------------|

...and every time you felt alive, you mean so much to me i'm without you, tell all the 
boys you meet, got your american boy back in the states, the american boy you used to 
who would do anything you say

Verse ( x 2) (ends like this)
Guitar One                      Guitar Two
e|-----------------------------|---------------------------------------------|
B|-----------------------------|---------------------------------------------|
G|-----------------------------|---------------------------------------------|
D|-----------------------------|6666666666666666-----------------------------|
A|-----------------------------|6666666666666666-----------------------------|
E|4(bend down and then back up)|4444444444444444-----------------------------|

No Words
[ Tab from: http://www.guitartabs.cc/tabs/b/brand_new/jude_law_and_semester_abroad_acoustic_tab.html ]
Intro(x 2)
...and even if her plane crashes tonight she'll find some way to disappoint me, by now 
in the wreckage, or drowning at the bottom of the sea

Verse(x 2)
Jess I still taste, reserve my right to hate you, all this empty space that you create, 
nothing for my flawless sense of style...

Pre Chorus(x 2)
Take 45, weather's getting by the hour, hope it rains there all the time...

Chorus
...and if you ever say you miss me then don't say you never lied i'm without you, tell 
the english boys you meet, got your american boy back in the states, the american boy you 
to date, who would do anything you say

Bridge
Guitar One
e|--------------------------------------------------------------------------|
B|--------------------------------------------------------------------------|
G|9------6666666666666666-4444444444444444----------------------------------|
D|9-(x64)6666666666666666-4444444444444444----------------------------------|
A|7------4444444444444444-2222222222222222----------------------------------|
E|0-------------------------------------------------------------------------|
  .
Guitar Two
e|---0-------0--------------------------------------------------------------|
B|---0-------0--------------------------------------------------------------|
G|-8-9-8---8-9-8----8----11----8----11----8----11----8----11----------------|
D|9-----9-9-----9-99-9-99--9-99-9-99--9-99-9-99--9-99-9-99--9---------------|
A|----------------..-.-..--.-..-.-..--.-..-.-..--.-..-.-..--.---------------|
E|--------------------------------------------------------------------------|
(only after first part of bridge second guitar goes)
e|--------------------------------------------------------------------------|
B|--------------------------------------------------------------------------|
G|---9-8-9-9-----999--------------------------------------------------------|
D|99-9-9-9-9-x-x-999--------------------------------------------------------|
A|..------------------------------------------------------------------------|
E|--------------------------------------------------------------------------|

Who would do anything you say, who would do anything you say...

Bridge Part 2 (x 2)
Guitar One
e|--------------------------------------------------------------------------|
B|--------------------------------------------------------------------------|
G|9999999999999999-9999999999999999-6666666666666666-4444444444444444-------|
D|9999999999999999-9999999999999999-6666666666666666-4444444444444444-------|
A|7777777777777777-6666666666666666-4444444444444444-2222222222222222-------|
E|0000000000000000-0000000000000000-................-................-------|
  ................ ................
Guitar Two
e|---0-------0--------------------------------------------------------------|
B|---0-------0--------------------------------------------------------------|
G|-8-9-8---8-9-8----8----11----8----11----8----11----8----11----------------|
D|9-----9-9-----9-99-9-99--9-99-9-99--9-99-9-99--9-99-9-99--9---------------|
A|----------------..-.-..--.-..-.-..--.-..-.-..--.-..-.-..--.---------------|
E|--------------------------------------------------------------------------|

No Words for first part, second part goes: Nooooooooo, Mooooooore, songs about you, 
this one I am done, you are you are you're gone

Outro (x 4)
e|--------------------------------------------------------------------------|
B|555555555555--------------------------------------------------------------|
G|444444444444-99999999999--------------66666-4444444-----------------------|
D|222222222222-99999999999-777777777777-66666-4444444-----------------------|
A|222222222222-66666666666-777777777777-44444-2222222-----------------------|
E|000000000000-00000000000-555555555555-------------------------------------|

Nooooooooooooooooooooo, Moooooooooooooore, songs about you, after this one I am done, 
are, you are, you're gone, Noooooooooooo, Mooooooooore, songs aout you, after this one, I 
done, you are you are, you're gone, tell all the english boys you meet, got your american
boy back in the states, the american boy you used to date, who would do anything you
tell all the enlgish boys you meet, got your american boy back in the states, the
american boy you used to date, who would do anything you say.

End On:
e|--------------------------------------------------------------------------|
B|--------------------------------------------------------------------------|
G|9-------------------------------------------------------------------------|
D|9-------------------------------------------------------------------------|
A|7-------------------------------------------------------------------------|
E|0-------------------------------------------------------------------------|

Note: throughout the song, these two chords are interchangable, he switches which one he uses i think
e|--------------------------------------------------------------------------|
B|---------5----------------------------------------------------------------|
G|9--------4----------------------------------------------------------------|
D|9---or---2----------------------------------------------------------------|
A|7--------2----------------------------------------------------------------|
E|0--------0----------------------------------------------------------------|


| .  palm mute
| /  slide up
| \  slide down
| h  hammer-on
| p  pull-off
| ~  vibrato
| +  harmonic
| x  Mute note
===============================================================================
Comments