Brand New - Jaws Theme Swimming Chords & Tabs

 

Jaws Theme Swimming Chords & Tabs

Brand New Chords & Tabs

Version: 2 Type: Tab 0 ratings
1 star 2 stars 3 stars 4 stars 5 stars
comments

Jaws Theme Swimming Tab

Tabbed by:BRANDNEWROCK
Email:LAURENPADGETT_06@HOTMAIL.COM

Tuning:NORMAL
INTRO:
e|---------------------------------------------------------------------------|
B|------------------------------------------------9--------------------------|
G|------66-----66-----66-----88-----66-----66-----8--------------------------|
D|------------------------------------------------6--------------------------|
A|------------------------------------------------6--------------------------|
E|--4H6----6P4----0H2----2P1----4H6----6P4-----------------------------------|
BASS LINE^


VERSE:
JAZZ STYLE
e|---------------------------------------------------------------------------|
B|------------------------------------------------9--------------------------|
G|------66-----66-----66-----88-----66-----66-----8--------------------------|
D|------------------------------------------------6--------------------------|
A|------------------------------------------------6--------------------------|
E|--4H6----6P4----0H2----2P1----4H6----6P4-----------------------------------|

e|---------------------------------------------------------------------------|
B|------------------------------------------------9--------------------------|
G|------66-----66-----66-----88-----66-----66-----8--------------------------|
D|------------------------------------------------6--------------------------|
A|------------------------------------------------6--------------------------|
E|--4H6----6P4----0H2----2P1----4H6----6P4-----------------------------------|


e|---------------------------------------------------------------------------|
B|------------------------------------------------9--------------------------|
G|------66-----66-----66-----88-----66-----66-----8--------------------------|
D|------------------------------------------------6--------------------------|
A|------------------------------------------------6--------------------------|
E|--4H6----6P4----0H2----2P1----4H6----6P4-----------------------------------|


e|---------------------------------------------------------------------------|
B|-9--6--9--6----------------------------------------------------------------|
G|-8--8--8--8----------------------------------------------------------------|
D|-6--6--6--6----------------------------------------------------------------|
A|-6--6--6--6----------------------------------------------------------------|
E|---------------x\(pick scrape)---------------------------------------------|

CHORUS:
e|---------------------------------------------------------------------------|
B|---------------------------------------------------------------------------|
G|---------------------------------------------------------------------------|
D|-4444444444444444444446-88888888888888888888864----------------------------|
A|-4444444444444444444446-88888888888888888888864----------------------------|
E|-2222222222222222222204-66666666666666666666642----------------------------|
May not be exact number of notes^

e|---------------------------------------------------------------------------|
B|---------------------------------------------------------------------------|
G|---------------------------------------------------------------------------|
D|-4444444444444444444446-88888888888888888888864----8\----------------------|
A|-4444444444444444444446-88888888888888888888864----8\----------------------|
E|-2222222222222222222204-66666666666666666666642----6\----------------------|

2nd Verse:
e|---------------------------------------------------------------------------|
B|------------------------------------------------9--------------------------|
G|------66-----66-----66-----88-----66-----66-----8--------------------------|
D|------------------------------------------------6--------------------------|
A|------------------------------------------------6--------------------------|
E|--4H6----6P4----0H2----2P1----4H6----6P4-----------------------------------|

e|---------------------------------------------------------------------------|
B|------------------------------------------------9--------------------------|
G|------66-----66-----66-----88-----66-----66-----8--------------------------|
D|------------------------------------------------6--------------------------|
A|------------------------------------------------6--------------------------|
E|--4H6----6P4----0H2----2P1----4H6----6P4-----------------------------------|


e|---------------------------------------------------------------------------|
B|------------------------------------------------9--------------------------|
G|------66-----66-----66-----88-----66-----66-----8--------------------------|
D|------------------------------------------------6--------------------------|
A|------------------------------------------------6--------------------------|
E|--4H6----6P4----0H2----2P1----4H6----6P4-----------------------------------|
[ Tab from: http://www.guitartabs.cc/tabs/b/brand_new/jaws_theme_swimming_tab_ver_2.html ]
e|---------------------------------------------------------------------------|
B|------------------------------------------------9--------------------------|
G|------66-----66-----66-----88-----66-----66-----8--------------------------|
D|------------------------------------------------6--------------------------|
A|------------------------------------------------6--------------------------|
E|--4H6----6P4----0H2----2P1----4H6----6P4-----------------------------------|

e|---------------------------------------------------------------------------|
B|-9--6--9--6----------------------------------------------------------------|
G|-8--8--8--8----------------------------------------------------------------|
D|-6--6--6--6----------------------------------------------------------------|
A|-6--6--6--6----------------------------------------------------------------|
E|---------------x\(pick scrape)---------------------------------------------|

2nd Chorus:

e|---------------------------------------------------------------------------|
B|---------------------------------------------------------------------------|
G|---------------------------------------------------------------------------|
D|-4444444444444444444446-88888888888888888888864----------------------------|
A|-4444444444444444444446-88888888888888888888864----------------------------|
E|-2222222222222222222204-66666666666666666666642----------------------------|
May not be exact number of notes^

e|---------------------------------------------------------------------------|
B|---------------------------------------------------------------------------|
G|---------------------------------------------------------------------------|
D|-4444444444444444444446-88888888888888888888864----------------------------|
A|-4444444444444444444446-88888888888888888888864----------------------------|
E|-2222222222222222222204-66666666666666666666642----------------------------|


e|---------------------------------------------------------------------------|
B|---------------------------------------------------------------------------|
G|---------------------------------------------------------------------------|
D|-444444-444444-888888-888888-444444-444444-888888-888888-------------------|
A|-444444-444444-888888-888888-444444-444444-888888-888888-------------------|
E|-222222-222222-666666-666666-222222-222222-666666-666666-------------------|

Bridge:

e|---------------------------------------------------------------------------|
B|---------------------------------------------------------------------------|
G|---------------------------------------------------------------------------|
D|-444444-444444-888888-888888-444444-444444-888888-888888-------------------|
A|-444444-444444-888888-888888-444444-444444-888888-888888-------------------|
E|-222222-222222-666666-666666-222222-222222-666666-666666-------------------|


e|--------------------------11--------------------11-------------------------|
B|-9--6----------------7-9-----9-7---9--6-----7-9----9-7---------------------|
G|-8--8--------------9---------------8--8---9--------------------------------|
D|-6--6--pick-around-----------------6--6------------------------------------|
A|-6--6------------------------------6--6------------------------------------|
E|---------------------------------------------------------------------------|
pm .  .                              .  .


e|--11-------11----------11--------------------------------------------------|
B|-----9---9----9----7-9----9-7----------------------------------------------|
G|-------9---------9---------------------------------------------------------|
D|---------------------------------------------------------------------------|
A|---------------------------------------------------------------------------|
E|---------------------------------------------------------------------------|

e|---------------------------------------------------------------------------|
B|---------------------------------------------------------------------------|
G|---------------------------------------------------------------------------|
D|-8--888-444-222-444/-888-444-8---------------------------------------------|
A|-8--888-444-222-444/-888-444-8---------------------------------------------|
E|-6--666-222-000-222/-666-222-6---------------------------------------------|

e|---------------------------------------------------------------------------|
B|---------------------------------------------------------------------------|
G|---------------------------------------------------------------------------|
D|-8--888-444-222-444/-888-444-8---------------------------------------------|
A|-8--888-444-222-444/-888-444-8---------------------------------------------|
E|-6--666-222-000-222/-666-222-6---------------------------------------------|

Last chorus
e|---------------------------------------------------------------------------|
B|---------------------------------------------------------------------------|
G|---------------------------------------------------------------------------|
D|-444444-444444-888888-888888-444444-444444-888888-888888--8----------------|
A|-444444-444444-888888-888888-444444-444444-888888-888888--8----------------|
E|-222222-222222-666666-666666-222222-222222-666666-666666--6----------------|

Noise for end


===========================================================================
Comments