Brand New - Jaws Theme Swimming Chords & Tabs

 

Jaws Theme Swimming Chords & Tabs

Brand New Chords & Tabs

Version: 1 Type: Tab 0 ratings
1 star 2 stars 3 stars 4 stars 5 stars
comments

Jaws Theme Swimming Tab

   
Artist: Brand New
Song: Jaws Theme Swimming
Album: Deja Entendu
Tuning: Standard/Tune 1/2 A Step Down
Transcribed By: Frank T.


h=Hammer
p=Pull
v=Upstroke
>>=Pick Slide
.=Palm Mute
( )=Hold Note(s)/Let Ring



Intro/Verse:3x
E--------------------------------55------------------(0)--
B------3-3-----3-3------3-3------00------3-3-----3-3-(3)--
G----------------------------------------------------(2)--
D---------------------------------------------------------
A--0h2-----2p0-----------------------0h2-----2p0----------
E-------------------2h3-----3p2---------------------------

Pre Chorus:2x
E---(5)v-------(2)v-----
B---(3)v-------(3)v-----
G---(4)v-------(0)v-----
D-----------------------
A-----------------------
E-----------------------

Pick Slide:1x
E-------------------
B-------------------
G-------------------
D--->>>>>>>>>>>>----
A--->>>>>>>>>>>>----
E--->>>>>>>>>>>>----

Chorus:2x
E-----------------------------------------------------------------
B-----------------------------------------------------------------
G-----------------------------------------------------------------
D--5-5-5-5-5-5-5-5-5-5-5-5-5-7-7-7-7-9-9-9-9-9-9-9-9-9-9-9-9-9----
A--5-5-5-5-5-5-5-5-5-5-5-5-5-7-7-7-7-9-9-9-9-9-9-9-9-9-9-9-9-9----
E--3p0h3p0h3p0h3p0h3p0h3p0h3-5p0h5p0-7p0h7p0h7p0h7p0h7p0h7p0h7----


2nd Verse:3x
E--------------------------------55------------------(0)--
B------3-3-----3-3------3-3------00------3-3-----3-3-(3)--
G----------------------------------------------------(2)--
D---------------------------------------------------------
A--0h2-----2p0-----------------------0h2-----2p0----------
E-------------------2h3-----3p2---------------------------


Pre Chorus:2x
E---(5)v-------(2)v-----
B---(3)v-------(3)v-----
G---(4)v-------(0)v-----
D-----------------------
A-----------------------
E-----------------------
[ Tab from: http://www.guitartabs.cc/tabs/b/brand_new/jaws_theme_swimming_tab.html ]
Pick Slide:1x
E-------------------
B-------------------
G-------------------
D--->>>>>>>>>>>>----
A--->>>>>>>>>>>>----
E--->>>>>>>>>>>>----

Chorus:2x
E-----------------------------------------------------------------
B-----------------------------------------------------------------
G-----------------------------------------------------------------
D--5-5-5-5-5-5-5-5-5-5-5-5-5-7-7-7-7-9-9-9-9-9-9-9-9-9-9-9-9-9----
A--5-5-5-5-5-5-5-5-5-5-5-5-5-7-7-7-7-9-9-9-9-9-9-9-9-9-9-9-9-9----
E--3p0h3p0h3p0h3p0h3p0h3p0h3-5p0h5p0-7p0h7p0h7p0h7p0h7p0h7p0h7----

2nd Chorus:4x
E-----------------------
B-----------------------
G-----------------------
D--(5)----------(2)-----
A--(5)----------(2)-----
E--(3)----------(0)-----

Repeat Whole Solo twice
Palm Mute:
Solo:3x
E------------5p0-----------5p0----
B--0-0--3p0--.-.--0-0--3p0-.-.----
G--.-.--.-.-------.-.--.-.--------
D---------------------------------
A---------------------------------
E----------------------------------
1x
E--------5/11/12/p7p5----
B--2/3-------------------
G------------------------
D------------------------
A------------------------
E------------------------
2nd Solo:2x
E---(12)----(7)----(5)----(12)--(7)-----5/12p7p5-----
B-----------------------------------2/3--------------
G----------------------------------------------------
D----------------------------------------------------
A----------------------------------------------------
E----------------------------------------------------


Fill In:2x
E----------------------------------------------
B----------------------------------------(0)---
G----------------------------------------(0)---
D----2-2-2-5-5-5-2-2-2-2-5-7-2-2-2-------(2)---
A----2-2-2-5-5-5-2-2-2-2-5-7-2-2-2-------(2)---
E----0-0-0-3-3-3-0-0-0-0-3-5-0-0-0-3-3-3-(0)---

Bridge:
E-----------------------------
B----------------(0)----------
G----------------(0)----------
D---(5)----------(2)----------
A---(5)----------(2)----------
E---(3)----------(0)----------

Comments