Brand New - Good To Know That If I Ever Need Attention All I Have To Do Is Die Chords & Tabs

 

Good To Know That If I Ever Need Attention All I Have To Do Is Die Chords & Tabs

Brand New Chords & Tabs

Version: 1 Type: Tab 0 ratings
1 star 2 stars 3 stars 4 stars 5 stars
comments

Good To Know That If I Ever Need Attention All I Have To Do Is Die Tab

-------------------------------------------------------------------------------
GOOD TO KNOW THAT IF I EVER NEED ATTENTION ALL I HAVE TO DO IS DIE  
Brand New
-----------------------------------------------------------------------------
Tabbed by:pinkcleo67	
Email:pinkcleo67@yahoo.com
[ Tab from: http://www.guitartabs.cc/tabs/b/brand_new/good_to_know_that_if_i_ever_need_attention_all_i_have_to_do_is_die_tab.html ]
Tuning:all strings flat
 
into & verse:
e|--------0-------------0-----------0---------------0-------------0----------|
B|------2---2--2------2---2--2-----2---2---2------2---2---2-----2---2---2----|
G|----2------2------2------2-----2-------2------2-------2-----2-------2------|
D|---------------------------------------------------------------------------|
A|--0------------------------------------------------------------------------|
E|----------------4------------3--------------1--------------0---------------|
*do this sequence a bunch of times.  it sounds good fingerpicked.
"am i correct to defend the fist that holds this pen?..."
"once said always said. i will hold the past over your head..."
 
chorus:
e|---------------------------------------------------------------------------|
B|---------------------------------------------------------------------------|
G|---------------------------------------------------------------------------|
D|---------------------------------------------------------------------------|
A|-10---10---7---5---3---2---3----10---10---7---5---3---2---3----------------|
E|--8----7---5---3---1---0---1-----8----7---5---3---1---0---1----------------|

*play each chord 8 times before moving to the next.
"you constantly make it impossible to make conversation. keep us comotose but
audible. and i like it the farther i get out. we passed it off but it's all on
us. only common conversation, it took everything i got. and i liked it the
farther i get out."
=============================================================================
Comments