Brand New - Good To Know That If I Ever Need Attention All I Have To Do Is Die Chords & Tabs

 

Good To Know That If I Ever Need Attention All I Have To Do Is Die Chords & Tabs

Brand New Chords & Tabs

Version: 1 Type: Bass Tab 0 ratings
1 star 2 stars 3 stars 4 stars 5 stars
comments

Good To Know That If I Ever Need Attention All I Have To Do Is Die Bass Tab

   
Standard Tuning


Intro: guitar

Verse/Main Riff (0:15) x6
G|-------------------------------|
D|-------------------------------|
A|-------------------------------|
E|-6~----5-4~----4-3~---1~---0~--|

Chorus (1:32) x2
G|------------------------------------------------------------------------|
D|------------------------------------------------------------------------|
A|------------------------------------------------------------------------|
E|-8/7777777/6/5555555/4/3333333/2/1111111--111111-000000-111111-222222---|

Verse (1:57) x4

Chorus (2:48) x2

(3:13)
G|----------|
D|----------|
A|----------|
E|---4~-----|
[ Tab from: http://www.guitartabs.cc/tabs/b/brand_new/good_to_know_that_if_i_ever_need_attention_all_i_have_to_do_is_die_btab.html ]
Interlude (3:16) x2
G|------------------------------------------------------------------------|
D|------------------------------------------------------------------------|
A|------------------------------------------------------------------------|
E|-6-6-666666-6-6---4-4-444444-4-4---2-2-222222-2-2---0-0-000000-0-0------|

Bridge (3:42) x2
G|------------------------------------------------------------------------|
D|------------------------------------------------------------------------|
A|--------------------------5555----5555----3333----3333----1111----1111--|
E|-689-689-689-689-689--5555----5555----3333----3333----1111----1111------|

Break (4:07)
G|-----------------------|
D|-----------------------|
A|-----------------------|
E|-4~----4~----4~----4~--|

Chorus (4:20) x4

(5:11)
G|-----------|
D|-----------|
A|-----------|
E|--4~~------|

Interlude (5:23) x2

Bridge (5:49) fades to end


On the bridge, the -689- is played quite fast

| /  slide up
| \  slide down
| h  hammer-on
| p  pull-off
| ~  vibrato
| +  harmonic
| x  Mute note
=============================================================================
Comments