Brand New - Flying At Tree Level Chords & Tabs

 

Flying At Tree Level Chords & Tabs

Brand New Chords & Tabs

Version: 1 Type: Tab 0 ratings
1 star 2 stars 3 stars 4 stars 5 stars
comments

Flying At Tree Level Tab

-------------------------------------------------------------------------------
			     FLYING AT TREE LEVEL - Brand New
-------------------------------------------------------------------------------
Tabbed by:Jordan Daniels (lifelong weebl fan)
Email:jdaniels111@hotmail.com

Tuning: half step down

*  - Palm Mute
// - Slide up
\\ - slide down
~  - Vibrato
b  - bend

Verse
eb|-------------------------------------------------------------|
Bb|-------------------------------------------------------------|
Gb|-------------------------------------------------------------|
Db|--7--7---7-\\----5---5---5-//--10--10--10-\\--1--1--1-\\-----|    x8
Ab|--7--7---7-\\----5---5---5-//--10--10--10-\\--1--1--1-\\-----|
Eb|--5--5---5-\\----3---3---3-//--8---8---8--\\--3--3--3-\\-----|
     *  *           *   *         *   *             *  *

	Chorus  Guitar 1
eb|--------------------------------------|
Bb|--------------------------------------|
Gb|----------------------5---------------|
Db|------7-------5-----5---5-----1-------|    x4
Ab|----7---7---5---5-3---------1---1-----|
Eb|--5-------3---------------3-----------|

=======================================================
	Chorus - Guitar 2
eb|-------------------------------|
Bb|-------------------------------|
Gb|------5-7//9~------9-7-5~------|   x2
Db|--5-7--------------------------|
Ab|-------------------------------|
Eb|-------------------------------|

					     5
					   5   5
Note: Do both of these short riffs after 3	 Starting on the A string
========================================================

Verse

Chorus
[ Tab from: http://www.guitartabs.cc/tabs/b/brand_new/flying_at_tree_level_tab.html ]
	Interlude - Guitar 1
eb|-----------------------------------------|
Bb|-----------------------------------------|
Gb|----------------------5------------------|
Db|---------2-----7------5-x8--5-----3------|   x4
Ab|---------2-x8--7-x16--3-----5-x4--3-x4---|
Eb|-\\\\\\\ 0-----5------------3-----1------|
 pickscrape *
========================================================

	Interlude - Guitar 2
eb|-------------------------------------------|\
Bb|--------12b13r12---12b13r12~---------------| \
Gb|-9---9-----------9-------------9---9-------|  \
Db|---9------------------------------9---9----|   \
Ab|-------------------------------------------|    \
Eb|-------------------------------------------|     \ 
						     \ x4
eb|----12----12b13r12----12b13r12~-:---10---8-|      /
Bb|-10----10----------10-----------:-8----6---|     /
Gb|--------------------------------:----------|    /
Db|--------------------------------:----------|   /
Ab|--------------------------------:----------|  / 
Eb|--------------------------------:----------| /

 4th time playing, play the following riff as a replacement for 
what is after the ":"s

eb|----12----12----12----12---10---10---10---10-|
Bb|-10----10----10----10----8----8----8----8----|
Gb|---------------------------------------------|
Db|---------------------------------------------|
Ab|---------------------------------------------|
Eb|---------------------------------------------|

eb|---7---7---7---7---7---7---7---7---|
Bb|-5---5---5---5---5---5---5---5-----|
Gb|-----------------------------------|
Db|-----------------------------------|
Ab|-----------------------------------|
Eb|-----------------------------------|

Chorus: Guitar 1 x2
	Guitar 2 x1

	then:
eb|----------|
Bb|----------|
Gb|----------|
Db|----------|
Ab|----------|
Eb|\\\\\-----|
pickscrape

Verse without p.m.

	Outro
eb|------------|
Bb|------------|
Gb|------------|
Db|222222222---|
Ab|222222222---|
Eb|000000000---|

There you go. Great song. Go out and buy Deja Entendu.
Comments