Brand New - Failure By Design Chords & Tabs

 

Failure By Design Chords & Tabs

Brand New Chords & Tabs

Version: 1 Type: Tab 0 ratings
1 star 2 stars 3 stars 4 stars 5 stars
comments

Failure By Design Tab

Intro/Verse 
e|---------------------------------------------------------------------------| 
B|----------------------5----------------------------------------------------| 
G|--P.M.-------6-----------6--------P.M.----------------5--------------------| 
D|--2-2--2--------6-----------6-----2-2--2-----6-----------6-----------------| 
A|--2-2--2--4--------4-----------4--2-2--2--------6-----------6--------------| 
E|--0-0--0--------------------------0-0--0--4--------4-----------4-----------| 
[ Tab from: http://www.guitartabs.cc/tabs/b/brand_new/failure_by_design_tab.html ]
e|---------------------------------------------------------------------------| 
B|----------------------5-----------P.M.-------------------------------------| 
G|--P.M.-------6-----------6--------4-4--4-----------------------------------| 
D|--2-2--2--------6-----------6-----4-4--4-----------------------------------| 
A|--2-2--2--4--------4-----------4--2-2--2--2--4--2--0--2--0-----------------| 
E|--0-0--0----------------------------------------------------4--2-----------| 

Pre-Chorus 
e|---------------------------------------------------------------------------| 
B|---------------------------------------------------------------------------| 
G|---------------------------------------------------------------------------| 
D|--2~--7~--2-7~--6-7-9-4-6--------------------------------------------------| 
A|--2~--7~--2-7~--6-7-9-4-6--------------------------------------------------| 
E|--0~--5~--0-5~--4-5-7-2-4--------------------------------------------------| 

needs chorus + break-down part
Comments