Brand New - Failure By Design Chords & Tabs

 

Failure By Design Chords & Tabs

Brand New Chords & Tabs

Version: 1 Type: Bass Tab 0 ratings
1 star 2 stars 3 stars 4 stars 5 stars
comments

Failure By Design Bass Tab

Verse 1 "Through a window..." 
Gb|------------------------------------------------------------------------| 
Db|------------------------------------------------------------------------| 
Ab|--------------------------------------4--4--4--4--2--2--2--2--242020----| 
Eb|--0--0--0--0--4--4--2--2--0--0--0--0--------------------------------42--| 

Verse 2 "And when I wake up..." 
Gb|--------------------------------------------------| 
Db|--------------------------------------------------| 
Ab|--------------4--4--4--4--------------------------| 
Eb|--0--0--0--0--------------0--0--0--0--4--4--2--2--| 

Verse 2 cont'd "And I'm so sore..." 
Gb|------------------------------------------------| 
Db|------------------------------------------------| 
Ab|--------------4--4--4--4--2--2--2--2--242020----| 
Eb|--0--0--0--0--------------------------------42--| 
[ Tab from: http://www.guitartabs.cc/tabs/b/brand_new/failure_by_design_btab.html ]
Chorus Intro "We don't believe in filler..." 
Gb|------------------------------------------------------| 
Db|------------------------------------------------------| 
Ab|------------------------------------------------------| 
Eb|--0--------0----4h5-4h5-4h5--0---------4--5--7--2--4--| 

Chorus "This a lesson in procrastination..." 
Gb|-----------------------------------------------------------------|----------| 
Db|-----------------------------------------------------------------|----------| 
Ab|---------------------------------------------4>----7-7-----------|----------| 
Eb|--5>----5-5-7-7--0---0--0-0-0-0-2h4-2h4-2h4--------------2----4--|--5-| 
x2 2nd time 
Bridge 1 "I'm out of everything..." 
Gb|--------------------------------------------------| 
Db|--------------------------------------------------| 
Ab|--------------------------4--4--4--2--2--2--2--2--| 
Eb|--0--0--0--0--0--0--0--0--------------------------| 
x7 
Bridge 2 
Gb|-----------------------------------------| 
Db|-----------------------------------------| 
Ab|-----------------------------------------| 
Eb|--0--0--0--0--0--0--0--0--4--5--7--2--4--| 

Ending 
Gb|--------------------------| 
Db|--------------------------| 
Ab|--------------------------| 
Eb|--0--0--0--0--0--0--0--0--| 

Verse 1 
Verse 2 
Chorus Intro 
Chorus x2 
Verse 1 
Verse 2 
Chorus Intro 
Chorus x2 
Bridge 1 x7 
Bridge 2 
Chorus x2 
Ending
Comments