Brand New - Am I Wrong Chords & Tabs

 

Am I Wrong Chords & Tabs

Brand New Chords & Tabs

Version: 2 Type: Tab 0 ratings
1 star 2 stars 3 stars 4 stars 5 stars
comments

Am I Wrong Tab

Song:Am I Wrong
Artist:Brand New
Album:Safety In Numbers Split
Transcribed By:Anthony Barbato
Any Questions Or Comments-
bradleynowell96@msn.com


Intro
|--------------------------|
|--------------------------|
|----6------------6--------|
|-6--6--6--1---3--6--6--1--|
|-6--4--6--1---3--4--6--1--|
|-6-----6--1---3-----6--1--|

Verse #1
|-------------------------|
|-------------------------|
|----6------------6-------|
|-6--6--6--8---6--6--6--8-|
|-6--4--6--6---6--4--6--6-|
|-6-----6--8---6-----6--8-|

Chorus #1
|------------------------|
|------------------------|
|----6-----------6-------|
|-3--6--6--8--3--6--6--8-|
|-3--4--6--6--3--4--6--6-|
|-3-----6--8--3-----6--8-|
[ Tab from: http://www.guitartabs.cc/tabs/b/brand_new/am_i_wrong_tab_ver_2.html ]
Verse #2
|-------------------------|
|-------------------------|
|----6------------6-------|
|-6--6--6--8---6--6--6--8-|
|-6--4--6--6---6--4--6--6-|
|-6-----6--8---6-----6--8-|

Chorus #2
|------------------------|
|------------------------|
|----6-----------6-------|
|-3--6--6--8--3--6--6--1-|
|-3--4--6--6--3--4--6--1-|
|-3-----6--8--3-----6--1-|


Interlude
|-------------------------|
|-------------------------|
|----6------------6-------|
|-6--6--6--1---6--6--6--8-|
|-6--4--6--1---6--4--6--6-|
|-6-----6--1---6-----6--8-|

Verse #3
|-------------------------|
|-------------------------|
|----6------------6-------|
|-6--6--6--8---6--6--6--8-|
|-6--4--6--6---6--4--6--6-|
|-6-----6--8---6-----6--8-|

Chorus #3
|------------------------|
|------------------------|
|----6-----------6-------|
|-3--6--6--8--3--6--6--1-|
|-3--4--6--6--3--4--6--1-|
|-3-----6--8--3-----6--1-|

Outro is same as verse and chorus
Comments