Brand New - Am I Wrong Chords & Tabs

 

Am I Wrong Chords & Tabs

Brand New Chords & Tabs

Version: 1 Type: Tab 0 ratings
1 star 2 stars 3 stars 4 stars 5 stars
comments

Am I Wrong Tab

Brand New - Am I Wrong, its a song off their demo. Its a pretty good song, the tabs are 
easy. Enjoy!

                           ~Bryan Baldwin~


Tuning: Dropped D
 / - slide to

Intro:
e-----------------------------------------------------------------------|
B-----------------------------------------------------------------------|
G---8---8-----8---8-----8---8----8---8-------5/8--8----6/8--8----8---8--|
D--6-6---6-----6---6---6-6---6--8-8---8------------6--6------6--6-6---6-|
A------6-----4---4----6----6---6----6-------3----6---4-----6--------6---|
D-6---------6--------------------------6/3-3-------------------6--------|

e-------------------------|
B-------------------------|
G---8---8-----------------|
D--8-8---8----------------|
A-6----6------------------|
D-------------------------|
[ Tab from: http://www.guitartabs.cc/tabs/b/brand_new/am_i_wrong_tab.html ]
Verse:
e---------------------------------------|
B---------------------------------------|
G---8---8-----8---8-----8---8----8---8--|
D--6-6---6-----6---6---6-6---6--8-8---8-|
A------6-----4---4----6----6---6----6---|
D-6---------6---------------------------|

Pre Chorus:
e------------------------------|
B------------------------------|
G---5/8--8----6/8--8----8---8--|
D---------6--6------6--6-6---6-|
A--3----6---4-----6--------6---|
D-3-------------------6--------|

Chorus:
e---------------------------------------|
B---------------------------------------|
G---8---8-----8---8-----8---8----8---8--|
D--6-6---6-----6---6---6-6---6--6-6---6-|
A------6-----4---4----6----6---4----4---|
D-6---------6---------------------------|

Small part between choruses:
e-------|
B-------|
G-8-8---|
D--8-6--|
A-----6-|
D-------|

End on:
e-----
B-----
G-8---
D-6---
A-6---
D-6---

Questions or Comments..email me at TomDeLonge0820@yahoo.com or IM me on AIM to:
 Souffrir Demain8
or
 TomDeLonge0820

Thanks
Comments