Branch Michelle - Its You Chords & Tabs

 

Its You Chords & Tabs

Branch Michelle Chords & Tabs

Version: 1 Type: Tab 0 ratings
1 star 2 stars 3 stars 4 stars 5 stars
comments

Its You Tab

   
Capo 4th frett

Verse
    D         Cadd9   G
e-------2---------0-----------0----- 
b---------3---------3-------3---3---  
g-----2---------0-----------------0-  
d---0---------2-----------0---------  
a-----------------------2-----------  
e---------------------3-------------  

Chorus:
[ Tab from: http://www.guitartabs.cc/tabs/b/branch_michelle/its_you_tab.html ]
   Bar b     lift 1       G
e------0-----------0------------0---- 
b----3---3-----3--- 3------3-----3-----  
g-----------------------------------
d------------------2---------------  
a---2-------0-------------------------  
e------------------------3---------- 


(lift 1 means just lift your bar finger)
Play around with the Cadd9, it's a good little song
email me if you have any questions: craybay@yahoo.com
Comments