Branch Michelle - Everywhere Chords & Tabs

 

Everywhere Chords & Tabs

Branch Michelle Chords & Tabs

Version: 4 Type: Tab 1 rating
1 star 2 stars 3 stars 4 stars 5 stars
comments

Everywhere Tab

   
"EVerywhere" - Michelle Branch

I drop down 1/2 step for this song. 


Intro 


      Bm           D          A
1 --------------------------------0--------0-----
2 ---------3-----------3-------------------------
3 -----------4-------2---2----------2--------2---
4 -------4---------0------------2--------2-------     Repeat 
5 -----2----------------------0--------0---------
6 -----------------------------------------------   

Verse

      Bm           D          A
1 --------------------------------0--------0-----
2 ---------3-----------3-------------------------
3 -----------4-------2---2----------2--------2---
4 -------4---------0------------2--------2-------     Repeat    
5 -----2----------------------0--------0---------
6 -----------------------------------------------
       Turn it inside out so I can see
       The part of you that's driftin over me

      Bm                   A
1 -----------------------------0-------0---------
2 ---------3--------3----------------------------
3 -----------4--------4----------2-------2-------
4 -------4--------4----------2-------2-----------     
5 -----2--------2----------0-------0-------------
6 -----------------------------------------------
       And when I wake you're, you're never there
[ Tab from: http://www.guitartabs.cc/tabs/b/branch_michelle/everywhere_tab_ver_4.html ]
      Bm                   A
1 -----------------------------0---0-------------
2 ---------3--------3----------------------------
3 -----------4--------4----------2---------------
4 -------4--------4----------2-------------------     
5 -----2--------2----------0---------------------
6 -----------------------------------------------
       And when I sleep you're, you're everywhere you're everywhere


*Distortion*

                         
1 -----------------------------------------------
2 -----------------------------------------------
3 -----------------------------------------------
4 -----4-4-x-7-7-x-2-2-x-2-2-2-------------------     
5 -----2-2-x-5-5-x-0-0-x-0-0-0-------------------
6 -----------------------------------------------

1 -----------------------------------------------
2 -----------------------------------------------
3 -----------------------------------------------
4 -----4-4-x-7-7-x-2-2-x-2-2-2--Repeat-----------     
5 -----2-2-x-5-5-x-0-0-x-0-0-0-------------------
6 -----------------------------------------------
       Just tell me how I got this far
       Just tell me why you're here and who you are

1 -----------------------------------------------
2 -----------------------------------------------
3 -----------------------------------------------
4 -----4-4-x-4-4-x-2-2-x-2-2-2--Repeat-----------     
5 -----2-2-x-2-2-x-0-0-x-0-0-0-------------------
6 -----------------------------------------------
       Cause every time I look you're never there
       And every time I sleep you're always there

Chorus
       G     D     A
1 -----------------------------------------------
2 -----------------------------------------------
3 -----------------------------------------------
4 -----------7-7---------------------------------     
5 -----5-5---5-5---7-7---------------------------
6 -----3-3---------5-5---------------------------


That's all I got so mess around with and u can probably figure it out.
Comments