Branch Michelle - Everywhere Intro Chords & Tabs

 

Everywhere Intro Chords & Tabs

Branch Michelle Chords & Tabs

Version: 1 Type: Chords 0 ratings
1 star 2 stars 3 stars 4 stars 5 stars
comments

Everywhere Intro Chords

   
##################################################################################
# This file is the author's own work and represents their interpretation of the  #
# song. You may only use this file for private study, scholarship, or research.  #
##################################################################################

allright, Here it is

"Everywhere"
By, Michelle Branch


-------Capo 1st fret------

[ Tab from: http://www.guitartabs.cc/tabs/b/branch_michelle/everywhere_intro_crd.html ]
Intro:
(finger picking)
      Am       C         G
|----------------------------------------|
|---x----------x---------x---------------|
|----x----------x---------x--------------|
|--x--x-------x--x------x--x-------------|
|-x----------x---------------------------|
|----------------------x-----------------|
          Am      Copen   GG
|-0-------0-------3-----3---|
|-1-------1-------3-----3---|
   |-2-------0-------0-----0---|
|-2-------2-------0-----0---|
|-0-------3-------2-----2---|
|-x-------x-------3-----3---|


  Am      Copen   GG
  Am      Copen   GG


Outro:



              Am   Copen   G    G
Oh, you're in everyone  I  see

           Am  Copen      G
So tell me     Do you see me?
Comments