Branch Michelle - Desperately Chords & Tabs

 

Desperately Chords & Tabs

Branch Michelle Chords & Tabs

Version: 1 Type: Tab 0 ratings
1 star 2 stars 3 stars 4 stars 5 stars
comments

Desperately Tab

====================================================================
: Desperately (unplugged) by michelle branch                                                  
: tabbed by Leslie(gurl_rock)  
: STARTED:5/20/2003(9:00 am) FINISHED:5/20/2003(12:30pm)          
:    I would like to thank LINLEY for everything. Gurl, U ROCK!!! 
: and to all Michelle's fans online in michellebranchmusic.com                                                       
:    Lastly, thanks MISS BRANCH for inspiring me with your 
: masterpieces, I've never thought this time will come (that 
: I could understand the worth of being an artist and songwriter).                     
=====================================================================

       
 intro:               
   e --------------------------          
   B -------0------------------          
   G --3-----------------3-----          
   D --------------------------          
   A --------------------2-----        
   E --------------------------          
     pluck  pluck(hold)  pluck(hold)  


   |----------------------------------0---
   |---------0------------------------0---
   |--3-------------------3-----------3--- 
[ Tab from: http://www.guitartabs.cc/tabs/b/branch_michelle/desperately_tab.html ]
Comments