Branch Michelle - All You Wanted Chords & Tabs

 

All You Wanted Chords & Tabs

Branch Michelle Chords & Tabs

Version: 2 Type: Tab 2 ratings
1 star 2 stars 3 stars 4 stars 5 stars
comments

All You Wanted Tab

   
Artist: Michelle Branch
Song: All You Wanted
Album: The Spirit Room

Michelle uses a capo on the first fret.

Intro/Verse:
e|-----3---------2----------------0---
B|-------3---------3------3---------3-
G|---0--------0---------0---0---0-----
D|-2--------0-------------------------
A|--------------------3---------------
E|-----------------------------3------

After "..you needed someone to show you the way"
e|-0-3-0-----
B|-------1-0-
G|-----------
D|-----------
A|-----------
E|-----------

Chorus:
   Em C  G  D
e|-0--0--3--2-
B|-0--1--3--3-
G|-0--0--0--2-
D|-2--2--0--0-
A|-2--3--2--0-
E|-0--0--3--0-

Verse 2:
e|-----3---------2----------------0---
B|-------3---------3------3---------3-
G|---0--------0---------0---0---0-----
D|-2--------0-------------------------
A|--------------------3---------------
E|-----------------------------3------
[ Tab from: http://www.guitartabs.cc/tabs/b/branch_michelle/all_you_wanted_tab_ver_2.html ]
Chorus:
   Em C  G  D
e|-0--0--3--2-
B|-0--1--3--3-
G|-0--0--0--2-
D|-2--2--0--0-
A|-2--3--2--0-
E|-0--0--3--0-

"All you wanted was somebody who cares
if you need me you know I'll be there"
   C  D  C  D  Em D
e|-0--2--0--2--0--2-
B|-1--3--1--3--0--3-
G|-0--2--0--2--0--2-
D|-2--0--2--0--2--0-
A|-3--0--3--0--2--0-
E|-0--0--0--0--0--0-

Chorus:
   Em C  G  D
e|-0--0--3--2-
B|-0--1--3--3-
G|-0--0--0--2-
D|-2--2--0--0-
A|-2--3--2--0-
E|-0--0--3--0-

Then back to:
e|-----3---------2----------------0---
B|-------3---------3------3---------3-
G|---0--------0---------0---0---0-----
D|-2--------0-------------------------
A|--------------------3---------------
E|-----------------------------3------

End on:   
e|-0-
B|-3-
G|-0-
D|-0-
A|-3-
e|-0-

That's it for this song, any questions requests or comments e-mail me at johnyknoxvillejr@yahoo.com
Comments