Bramhall Doyle - Soul Shaker Chords & Tabs

 

Soul Shaker Chords & Tabs

Bramhall Doyle Chords & Tabs

Version: 3 Type: Tab 0 ratings
1 star 2 stars 3 stars 4 stars 5 stars
comments

Soul Shaker Tab

   
Author: Mike Kruft
Artist: Doyle Bramhall II & Smokestack
Album:  Welcome
Song:   Soul Shaker

feel free to email me at evenwallsfalldwn@hotmail.com

If you're looking at this then bless you for liking good rock and roll.

(due to requests I'm adding more doyle tabs!)

^ - slight bend
* - major bend
p - pull off
h - hammer on
/ - slide up
\ - slide down
~ - vibrato

On the first strum of every chord during the verses & intro Doyle plays 
the barre chords completely open, and then on the following strum 
he hammers on with the rest of the Chords configuration and plays
the chord for the next 4 strums.

Intro:
e-----10---10-----   -----10---10-----
B-----10---10-----   -----10---10-----
G-----10-h-11-----   -----10-h-11-----   
D-----10-h-12-----   -----10-h-12-----
A-----10-h-12-----   -----10-h-12-----
E-----10---10-----   -----10---10-----
            
            D                   D

e-----8---8-----   -----8---8-----
B-----8---8-----   -----8---8-----
G-----8-h-9-----   -----8-h-9-----   
D-----8-h-10----   -----8-h-10----
A-----8-h-10----   -----8-h-10----
E-----8---8-----   -----8---8-----
            
          C                 C

(repeat once)

Verse:

D               C                       
Soul Shaker... You've got a hold on me..
D              C
Turn me on... Don't turn your heat up now..
D             C
ooohoo oo...  ooohoo oo..


Day Dreamer... Everything at my feet..

Dream maker now... Your love is everywhere..

ooohoo oo... ooohoo oo..


Chorus:

G              C
Shake it up... You really do it to me..
G              C
Shake it up... You've got me in a swing..
G              C
Shake it up... Like birds of a feather..
G              C
Shake it up... Where my words don't really matter..
G              C

G              C


Verse:

D                C                       
Touch me baby... You're an electric vibe..
D                   C
So beautiful now... Let me stand in your light..
D             C
ooohoo oo...  ooohoo oo..


Shake me up... Got that kind of feel right..

Caress me baby... Give me some of that feel right..

ooohoo oo... ooohoo oo..




Solo:

e-------------------------------------------------------------------------
B--------10-10h12-------10-10h12------------------------------------------
G---9/12-----------9/12-----------12-10----10-----------------------------
D---------------------------------------12----12~--10h12-10---------------
A-----------------------------------------------------------10-12-10------
E--------------------------------------------------------------------10---
[ Tab from: http://www.guitartabs.cc/tabs/b/bramhall_doyle/soul_shaker_tab_ver_3.html ]
e------------------------10----10-12-10----10-------10-10-12*-12*-10-10---
B--10h12-10h12-10-12--12----12----------12----12-12---------------------12
G-------------------------------------------------------------------------
D-------------------------------------------------------------------------
A-------------------------------------------------------------------------
E-------------------------------------------------------------------------

e---10-12^-10-------------------------------------------------------------
B-------------------------------------------------------------------------
G-------------------------------------------------------------------------
D-------------------------------------------------------------------------
A-------------------------------------------------------------------------
E-------------------------------------------------------------------------

D            C
ooohoo oo... ooohoo oo..

e-------------------------------------------------------------------------
B----10h12--10-10----10h12------------------------------------------------
G-----------------12------------------------------------------------------
D-------------------------------------------------------------------------
A-------------------------------------------------------------------------
E-------------------------------------------------------------------------

D            C
ooohoo oo... ooohoo oo..

e----12* 12^-10----10-12-10-----------------------------------------------
B---------------12--------------------------------------------------------
G-------------------------------------------------------------------------
D-------------------------------------------------------------------------
A-------------------------------------------------------------------------
E-------------------------------------------------------------------------

D            C
ooohoo oo... ooohoo oo..

e----17h19-17h19-17~------------------------------------------------------
B---------------------19-17----17-19-17-----------------------------------
G---------------------------19----------19--------------------------------
D-------------------------------------------------------------------------
A-------------------------------------------------------------------------
E-------------------------------------------------------------------------

D            C
ooohoo oo... ooohoo oo..

e----------10~--10~--10~--10~\--------------------------------------------
B----10/12----------------------------------------------------------------
G-------------------------------------------------------------------------
D-------------------------------------------------------------------------
A-------------------------------------------------------------------------
E-------------------------------------------------------------------------


G              C
Shake it up... Shake it up...
G              C
Shake it up... Shake it up...
G              C
Shake it up... Shake it up...



G              C
Shake it up...





Comments