Bramhall Doyle - Soul Shaker Chords & Tabs

 

Soul Shaker Chords & Tabs

Bramhall Doyle Chords & Tabs

Version: 1 Type: Tab 0 ratings
1 star 2 stars 3 stars 4 stars 5 stars
comments

Soul Shaker Tab

"Soul Shaker"- Doyle Bramhall II
This song is in open A with the low E dropped to D.
Its a basic chunka-chunka Rolling Stones style
driving rhythym. Real easy once you get tuned up,
although some people may not be used to the hand
postions at first.

Tabbed by Trent Walton
swampguitar2000@yahoo.com
                                                  
E ||--6----6--6----6--6----6----6--6----6--6----||
C#||--7----6--6----6--6----7----6--6----6--6----||
A ||--6----6--6----6--6----6----6--6----6--6----||
E ||--8----6--6----6--6----8----6--6----6--6----||
A ||--6----6--6----6--6----6----6--6----6--6----||
D ||--------------------------------------------||

E ||--4----4--4----4--4----4----4--4----4--4----||
C#||--5----4--4----4--4----5----4--4----4--4----||
A ||--4----4--4----4--4----4----4--4----4--4----||
E ||--6----4--4----4--4----6----4--4----4--4----||
A ||--4----4--4----4--4----4----4--4----4--4----||
D ||--------------------------------------------||

E ||--6----6--6----6--6----6----6--6----6--6----||
C#||--7----6--6----6--6----7----6--6----6--6----||
A ||--6----6--6----6--6----6----6--6----6--6----||
E ||--8----6--6----6--6----8----6--6----6--6----||
A ||--6----6--6----6--6----6----6--6----6--6----||
D ||--------------------------------------------||

E ||--4----4--4----4--4----4----4--4----4--4----||
C#||--5----4--4----4--4----5----4--4----4--4----||
A ||--4----4--4----4--4----4----4--4----4--4----||
E ||--6----4--4----4--4----6----4--4----4--4----||
A ||--4----4--4----4--4----4----4--4----4--4----||
D ||--------------------------------------------||

E ||--6----6--6----6--6----6----6--6----6--6----||
C#||--7----6--6----6--6----7----6--6----6--6----||
A ||--6----6--6----6--6----6----6--6----6--6----||
E ||--8----6--6----6--6----8----6--6----6--6----||
A ||--6----6--6----6--6----6----6--6----6--6----||
D ||--------------------------------------------||
   Soul Shaker

E ||--4----4--4----4--4----4----4--4----4--4----||
C#||--5----4--4----4--4----5----4--4----4--4----||
A ||--4----4--4----4--4----4----4--4----4--4----||
E ||--6----4--4----4--4----6----4--4----4--4----||
A ||--4----4--4----4--4----4----4--4----4--4----||
D ||--------------------------------------------||
   You've got a hold on me

E ||--6----6--6----6--6----6----6--6----6--6----||
C#||--7----6--6----6--6----7----6--6----6--6----||
A ||--6----6--6----6--6----6----6--6----6--6----||
E ||--8----6--6----6--6----8----6--6----6--6----||
A ||--6----6--6----6--6----6----6--6----6--6----||
D ||--------------------------------------------||
   Turn me on

E ||--4----4--4----4--4----4----4--4----4--4----||
C#||--5----4--4----4--4----5----4--4----4--4----||
A ||--4----4--4----4--4----4----4--4----4--4----||
E ||--6----4--4----4--4----6----4--4----4--4----||
A ||--4----4--4----4--4----4----4--4----4--4----||
D ||--------------------------------------------||
   Don't turn your heater down

E ||--6----6--6----6--6----6----6--6----6--6----||
C#||--7----6--6----6--6----7----6--6----6--6----||
A ||--6----6--6----6--6----6----6--6----6--6----||
E ||--8----6--6----6--6----8----6--6----6--6----||
A ||--6----6--6----6--6----6----6--6----6--6----||
D ||--------------------------------------------||
   Ooo...  Ooo...  Oooo... Ooo

E ||--4----4--4----4--4----4----4--4----4--4----||
C#||--5----4--4----4--4----5----4--4----4--4----||
A ||--4----4--4----4--4----4----4--4----4--4----||
E ||--6----4--4----4--4----6----4--4----4--4----||
A ||--4----4--4----4--4----4----4--4----4--4----||
D ||--------------------------------------------||
   Ooo...  Ooo...  Oooo... Ooo

E ||--6----6--6----6--6----6----6--6----6--6----||
C#||--7----6--6----6--6----7----6--6----6--6----||
A ||--6----6--6----6--6----6----6--6----6--6----||
E ||--8----6--6----6--6----8----6--6----6--6----||
A ||--6----6--6----6--6----6----6--6----6--6----||
D ||--------------------------------------------||
   Daydreamer

E ||--4----4--4----4--4----4----4--4----4--4----||
C#||--5----4--4----4--4----5----4--4----4--4----||
A ||--4----4--4----4--4----4----4--4----4--4----||
E ||--6----4--4----4--4----6----4--4----4--4----||
A ||--4----4--4----4--4----4----4--4----4--4----||
D ||--------------------------------------------||
   Everything at my feet

E ||--6----6--6----6--6----6----6--6----6--6----||
C#||--7----6--6----6--6----7----6--6----6--6----||
A ||--6----6--6----6--6----6----6--6----6--6----||
E ||--8----6--6----6--6----8----6--6----6--6----||
A ||--6----6--6----6--6----6----6--6----6--6----||
D ||--------------------------------------------||
   Dream-maker

E ||--4----4--4----4--4----4----4--4----4--4----||
C#||--5----4--4----4--4----5----4--4----4--4----||
A ||--4----4--4----4--4----4----4--4----4--4----||
E ||--6----4--4----4--4----6----4--4----4--4----||
A ||--4----4--4----4--4----4----4--4----4--4----||
D ||--------------------------------------------||
   Your love is everywhere

E ||--6----6--6----6--6----6----6--6----6--6----||
C#||--7----6--6----6--6----7----6--6----6--6----||
A ||--6----6--6----6--6----6----6--6----6--6----||
E ||--8----6--6----6--6----8----6--6----6--6----||
A ||--6----6--6----6--6----6----6--6----6--6----||
D ||--------------------------------------------||
   Ooo...  Ooo...  Oooo... Ooo

E ||--4----4--4----4--4----4----4--4----4--4----||
C#||--5----4--4----4--4----5----4--4----4--4----||
A ||--4----4--4----4--4----4----4--4----4--4----||
E ||--6----4--4----4--4----6----4--4----4--4----||
A ||--4----4--4----4--4----4----4--4----4--4----||
D ||--------------------------------------------||
   Ooo...  Ooo...  Oooo... Ooo

E ||------------------------4----4--4--4--4--------||
C#||------------------------4----4--4--4--4--------||
A ||------------------------4----4--4--4--4-----4--||
E ||---------------------6--4----4--4--4--4--6--4--||
A ||--6--6--6--6--6/-10--6--4----4--4--4--4--6--4--||
D ||--6--6--6--6--6/-10-----6----6--6--6--6--------||
   Shake it up.....         You really do it to me

E ||------------------------4----4--4--4--4--------||
C#||------------------------4----4--4--4--4--------||
A ||------------------------4----4--4--4--4-----4--||
E ||---------------------6--4----4--4--4--4--6--4--||
A ||--6--6--6--6--6/-10--6--4----4--4--4--4--6--4--||
D ||--6--6--6--6--6/-10-----6----6--6--6--6--------||
   Shake it up.....         You got me in a swing

E ||------------------------4----4--4--4--4--------||
C#||------------------------4----4--4--4--4--------||
A ||------------------------4----4--4--4--4-----4--||
E ||---------------------6--4----4--4--4--4--6--4--||
A ||--6--6--6--6--6/-10--6--4----4--4--4--4--6--4--||
D ||--6--6--6--6--6/-10-----6----6--6--6--6--------||
   Shake it up.....         Like birds of a feather
[ Tab from: http://www.guitartabs.cc/tabs/b/bramhall_doyle/soul_shaker_tab.html ]
E ||------------------------4----4--4--4--4--------||
C#||------------------------4----4--4--4--4--------||
A ||------------------------4----4--4--4--4-----4--||
E ||---------------------6--4----4--4--4--4--6--4--||
A ||--6--6--6--6--6/-10--6--4----4--4--4--4--6--4--||
D ||--6--6--6--6--6/-10-----6----6--6--6--6--------||
   Shake it up.....         When my words don't really matter

E ||--6----6--6----6--6----6----6--6----6--6----||
C#||--7----6--6----6--6----7----6--6----6--6----||
A ||--6----6--6----6--6----6----6--6----6--6----||
E ||--8----6--6----6--6----8----6--6----6--6----||
A ||--6----6--6----6--6----6----6--6----6--6----||
D ||--------------------------------------------||
   Touch me baby

E ||--4----4--4----4--4----4----4--4----4--4----||
C#||--5----4--4----4--4----5----4--4----4--4----||
A ||--4----4--4----4--4----4----4--4----4--4----||
E ||--6----4--4----4--4----6----4--4----4--4----||
A ||--4----4--4----4--4----4----4--4----4--4----||
D ||--------------------------------------------||
   Your hands electrify

E ||--6----6--6----6--6----6----6--6----6--6----||
C#||--7----6--6----6--6----7----6--6----6--6----||
A ||--6----6--6----6--6----6----6--6----6--6----||
E ||--8----6--6----6--6----8----6--6----6--6----||
A ||--6----6--6----6--6----6----6--6----6--6----||
D ||--------------------------------------------||
   So beautifull now

E ||--4----4--4----4--4----4----4--4----4--4----||
C#||--5----4--4----4--4----5----4--4----4--4----||
A ||--4----4--4----4--4----4----4--4----4--4----||
E ||--6----4--4----4--4----6----4--4----4--4----||
A ||--4----4--4----4--4----4----4--4----4--4----||
D ||--------------------------------------------||
   Let me stand in your light

E ||--6----6--6----6--6----6----6--6----6--6----||
C#||--7----6--6----6--6----7----6--6----6--6----||
A ||--6----6--6----6--6----6----6--6----6--6----||
E ||--8----6--6----6--6----8----6--6----6--6----||
A ||--6----6--6----6--6----6----6--6----6--6----||
D ||--------------------------------------------||
   Ooo...  Ooo...  Oooo... Ooo

E ||--4----4--4----4--4----4----4--4----4--4----||
C#||--5----4--4----4--4----5----4--4----4--4----||
A ||--4----4--4----4--4----4----4--4----4--4----||
E ||--6----4--4----4--4----6----4--4----4--4----||
A ||--4----4--4----4--4----4----4--4----4--4----||
D ||--------------------------------------------||
   Ooo...  Ooo...  Oooo... Ooo

E ||--6----6--6----6--6----6----6--6----6--6----||
C#||--7----6--6----6--6----7----6--6----6--6----||
A ||--6----6--6----6--6----6----6--6----6--6----||
E ||--8----6--6----6--6----8----6--6----6--6----||
A ||--6----6--6----6--6----6----6--6----6--6----||
D ||--------------------------------------------||
   Shake me up

E ||--4----4--4----4--4----4----4--4----4--4----||
C#||--5----4--4----4--4----5----4--4----4--4----||
A ||--4----4--4----4--4----4----4--4----4--4----||
E ||--6----4--4----4--4----6----4--4----4--4----||
A ||--4----4--4----4--4----4----4--4----4--4----||
D ||--------------------------------------------||
   You got that kind of feel right

E ||--6----6--6----6--6----6----6--6----6--6----||
C#||--7----6--6----6--6----7----6--6----6--6----||
A ||--6----6--6----6--6----6----6--6----6--6----||
E ||--8----6--6----6--6----8----6--6----6--6----||
A ||--6----6--6----6--6----6----6--6----6--6----||
D ||--------------------------------------------||
   Caress me baby

E ||--4----4--4----4--4----4----4--4----4--4----||
C#||--5----4--4----4--4----5----4--4----4--4----||
A ||--4----4--4----4--4----4----4--4----4--4----||
E ||--6----4--4----4--4----6----4--4----4--4----||
A ||--4----4--4----4--4----4----4--4----4--4----||
D ||--------------------------------------------||
   Gimme some of that feel right

E ||--6----6--6----6--6----6----6--6----6--6----||
C#||--7----6--6----6--6----7----6--6----6--6----||
A ||--6----6--6----6--6----6----6--6----6--6----||
E ||--8----6--6----6--6----8----6--6----6--6----||
A ||--6----6--6----6--6----6----6--6----6--6----||
D ||--------------------------------------------||
   Ooo...  Ooo...  Oooo... Ooo

E ||--4----4--4----4--4----4----4--4----4--4----||
C#||--5----4--4----4--4----5----4--4----4--4----||
A ||--4----4--4----4--4----4----4--4----4--4----||
E ||--6----4--4----4--4----6----4--4----4--4----||
A ||--4----4--4----4--4----4----4--4----4--4----||
D ||--------------------------------------------||
   Ooo...  Ooo...  Oooo... Ooo

E ||------------------------4----4--4--4--4--------||
C#||------------------------4----4--4--4--4--------||
A ||------------------------4----4--4--4--4-----4--||
E ||---------------------6--4----4--4--4--4--6--4--||
A ||--6--6--6--6--6/-10--6--4----4--4--4--4--6--4--||
D ||--6--6--6--6--6/-10-----6----6--6--6--6--------||
   Shake it up.....         You really do it to me

E ||------------------------4----4--4--4--4--------||
C#||------------------------4----4--4--4--4--------||
A ||------------------------4----4--4--4--4-----4--||
E ||---------------------6--4----4--4--4--4--6--4--||
A ||--6--6--6--6--6/-10--6--4----4--4--4--4--6--4--||
D ||--6--6--6--6--6/-10-----6----6--6--6--6--------||
   Shake it up.....         You got me in a swing

E ||------------------------4----4--4--4--4--------||
C#||------------------------4----4--4--4--4--------||
A ||------------------------4----4--4--4--4-----4--||
E ||---------------------6--4----4--4--4--4--6--4--||
A ||--6--6--6--6--6/-10--6--4----4--4--4--4--6--4--||
D ||--6--6--6--6--6/-10-----6----6--6--6--6--------||
   Shake it up.....         Like birds of a feather

E ||------------------------4----4--4--4--4--------||
C#||------------------------4----4--4--4--4--------||
A ||------------------------4----4--4--4--4-----4--||
E ||---------------------6--4----4--4--4--4--6--4--||
A ||--6--6--6--6--6/-10--6--4----4--4--4--4--6--4--||
D ||--6--6--6--6--6/-10-----6----6--6--6--6--------||
   Shake it up.....         Well my words don't really matter

E ||------------------------4----4--4--4--4--------||
C#||------------------------4----4--4--4--4--------||
A ||------------------------4----4--4--4--4-----4--||
E ||---------------------6--4----4--4--4--4--6--4--||
A ||--6--6--6--6--6/-10--6--4----4--4--4--4--6--4--||
D ||--6--6--6--6--6/-10-----6----6--6--6--6--------||
   Shake it up.....         

E ||------------------------4----4--4--4--4--------||
C#||------------------------4----4--4--4--4--------||
A ||------------------------4----4--4--4--4-----4--||
E ||---------------------6--4----4--4--4--4--6--4--||
A ||--6--6--6--6--6/-10--6--4----4--4--4--4--6--4--||
D ||--6--6--6--6--6/-10-----6----6--6--6--6--------||
   Shake it up.....         

E ||------------------------4----4--4--4--4--------||
C#||------------------------4----4--4--4--4--------||
A ||------------------------4----4--4--4--4-----4--||
E ||---------------------6--4----4--4--4--4--6--4--||
A ||--6--6--6--6--6/-10--6--4----4--4--4--4--6--4--||
D ||--6--6--6--6--6/-10-----6----6--6--6--6--------||
   Shake it up.....         

E ||------------------------4----4--4--4--4--------||
C#||------------------------4----4--4--4--4--------||
A ||------------------------4----4--4--4--4-----4--||
E ||---------------------6--4----4--4--4--4--6--4--||
A ||--6--6--6--6--6/-10--6--4----4--4--4--4--6--4--||
D ||--6--6--6--6--6/-10-----6----6--6--6--6--------||
   Shake it up.....         
Comments