Brain Dead - Misery Chords & Tabs

 

Misery Chords & Tabs

Brain Dead Chords & Tabs

Version: 1 Type: Tab 0 ratings
1 star 2 stars 3 stars 4 stars 5 stars
comments

Misery Tab

another cool song
Standard E tuning




Intro  (p.m.)......................................................
----------------------------------------------------------------------
----------------------------------------------------------------------
--------------------------------------2-3-0-2---0-----2-3-0-2---0-----
------2-3-0-2---0-----2-3-0-2---0---0---------3---2-0---------3---2---
---0----------3---2-0---------3---2-----------------------------------
----------------------------------------------------------------------
[ Tab from: http://www.guitartabs.cc/tabs/b/brain_dead/misery_tab.html ]
                        verse repeat 4x all 0's (p.m.)
-------------------0H2H3----------------------------------------------
-------------0H2H3----------------------------------------------------
-------0H2H3----------------------------------------------------------
-0H2H3----------------------------------------------------------------
-------------------------2-------9---------8-----5---4----------------
-------------------------0-0-0-0-7-0-0-0-0-6-0-0-3-0-2----------------


chorus
----------------------------------------------------------------------
----------------------------------------------------------------------
----------------------------------------------------------------------
---6-6-6----9--9--9--8-8-8--5-5-5-------------------------------------
---7-7-7---10-10-10--9-9-9--6-6-6-------------------------------------
----------------------------------------------------------------------
repeat all 2x

outro                      B 1/2 step
-------------------0H2H3---(5)----------------------------------------
-------------0H2H3----------------------------------------------------
-------0H2H3----------------------------------------------------------
-0H2H3----------------------------------------------------------------
----------------------------------------------------------------------
----------------------------------------------------------------------


Comments