Braddigan - Pura Vida Chords & Tabs

 

Pura Vida Chords & Tabs

Braddigan Chords & Tabs

Version: 1 Type: Tab 0 ratings
1 star 2 stars 3 stars 4 stars 5 stars
comments

Pura Vida Tab

   
Intro/Verses

E -----------5s7------7s9--7---------5---------5s7-------7s9----7------------5-----7------------------
B -----3----------------------10-----5------3-------------------------10-----7-----9------------------
G ---------------7-------------------6----------------7----------------------7-----9-------------------
D -----------------------------------7---------------------------------------7-----9------------------
A -----------------------------------7---------------------------------------5-----7-------------------
E -----------------------------------5---------------------------------------5-----7-------------------


Chorus

	A        D        G        E
E ------5--------5--------3--------7--------------------------
B ------5--------7--------3--------9--------------------------
G ------6--------7--------4--------9-------------------------
D ------7--------7--------5--------9-------------------------
A ------7--------5--------5--------7-------------------------
E ------5--------5--------3--------7-------------------------


Bridge

[ Tab from: http://www.guitartabs.cc/tabs/b/braddigan/pura_vida_tab.html ]
E ------2---------5---------2---------5---------2---------2----------------------------------
B ------2---------6---------2---------6---------2---------3----------------------------------
G ------2---------7---------2---------7---------2---------4---------------------------------
D ------4---------7---------4---------7---------4---------4----------------------------------
A ------4---------5---------4---------5---------4---------2----------------------------------
E ------2---------5---------2---------5---------2---------2----------------------------------


Verse 1
Well we’re waiting again
Throwing thumbs on the side of the road
Ever wondering’, ever feeling
Tracing lines that no one knows

Verse 2
Well we’re waiting again
Side by side until to who knows
Salty breeze is finally blowing
Heff and Hayes are chargin marvioo-so

Chorus
Let the wind be upon your back
And if there’s sun, let it shine on your face
Let the rains rip across your path
Providing a swell to last all of your day

Verse 3
Pablo please what will we do
Now we’re finally off the leash
A rooster’s tail (a rooster’s tail) we simply can not lose
Finding fish before the feast

Chorus

Bridge
Sometimes ya gonna chase em down just to let em go, let em go
Sometimes ya gonna run em down just to let em go, let em go
Sometimes its not that ya knowww ohh ohohhh hohoohoh ohhh
Ohhh ohh ooohhh oh

Verse 4
Well we’re waiting again
Throwing thumbs on the side of the road
Ever wondering’, ever feeling
Tracing lines that no one knows
Comments