Brad Paisley - Wrapped Around Chords & Tabs

 

Wrapped Around Chords & Tabs

Brad Paisley Chords & Tabs

Version: 1 Type: Bass Tab 0 ratings
1 star 2 stars 3 stars 4 stars 5 stars
comments

Wrapped Around Bass Tab

   
http://www.bradpaisley.com/
-------------------------------------------------------------------------------
			     Wrapped Around - Brad Paisley
-------------------------------------------------------------------------------

Tabbed By : Jacob Green		
e-mail: revelation45@hotmail.com

Tuning:BEADG

Intro/Outro
G|----------------|
D|----------------|
A|---4-7-4--------|2X
E|-5----------4-7-|
B|---------55-----|

Verse
G|-----------------------------------------------------------------------|
D|-----------4-7-4---6-9-6------------------4-7-4------------------------|
A|---4-7-4-5-------7--------4-7-4---4-7-4-5---------44-55-44-55-44-55-4--|
E|-5----------------------5-------5--------------------------------------|
B|------------------------------------------------5--------------------5-|

[ Tab from: http://www.guitartabs.cc/tabs/b/brad_paisley/wrapped_around_btab.html ]
G|-------------------------------------|
D|-------------------------------------|
A|-44-55-44-55-44-55-4--44-55-44-------|
E|---------------------------------4-7-|
B|--------------------5---------55-----|

Chorus
G|------------------------------------------------------------------------|
D|---4-7-4---4-7-4-----------------------------------4-7-4----------4-7-4-|
A|-5-------5---------4-7-4---4-7-4-----------------5----------4-7-5-------|
E|-----------------5-------5---------4-7-4---4-7-4---------55-------------|
B|---------------------------------5-------5------------------------------|

G|--------------------------4-7-------------------------------|
D|---4-7-4-----------4h6h7------------------------------------|
A|-5-----------4-5-7--------------4-7-4----------4-7-4--------|
E|---------5-7------------------5----------4-7-5----------4-7-|
B|--------------------------------------55-------------55-----|


Pretty easy song.  For the guitar solo, play the verse 2 times.

| /  slide up
| \  slide down
| h  hammer-on
| p  pull-off
| ~  vibrato
| +  harmonic
| x  Mute note

===============================================================================
Comments