Brad Paisley - Thats Love Chords & Tabs

 

Thats Love Chords & Tabs

Brad Paisley Chords & Tabs

Version: 2 Type: Tab 0 ratings
1 star 2 stars 3 stars 4 stars 5 stars
comments

Thats Love Tab

   
Tabbed by skaterdoll1234@yahoo.com
this is after the intro

 h=hammer
 b=bend
 v=vibroto


repeats a lot,
      
   e------------------------------------------------|-----------|
   b------------------------------------------------|--2-2------| x4
   g------------------------------------------------|--2-2--4-4-|
   d---------------0---0--2------------2--4b--2--4v-|--2-2--4-4-|
   a-------------2---2-------0--0--3h4--------------|-------2-2-|
   E---0--0--3h4------------------------------------|-----------|


   e--------------------------------------------------------------|
   b--------------------------------------------------------------|continued
   g-------------------------2------------------2--2--2-x-x--2-2--| on next
   d---------------0---0--3--2-------------0--0----2--2-x-x--2-2--|   line
   a-------------2---2-------0-----------2--2------0--0-x-x--0-0--|
   E---0--0--3h4---------------0--0--3h4--------------------------|

[ Tab from: http://www.guitartabs.cc/tabs/b/brad_paisley/thats_love_tab_ver_2.html ]
   e--------------------------------------------------------------|
   b--------------------------------------------------------------|
   g---6-x-x-4-x-x-2-x-x------------------------------------------|
   d---6-x-x-4-x-x-2-x-x-------------0---0--2---------2--4b--2-4v-|
   a---4-x-x-2-x-x-0-x-x-----------2---2------0-0-3h4-------------|
   E----------------------0--0-3h4--------------------------------|

        
   e---------------------0--------0-------------------|continued on 
   b---------------------0--2-----0--2-----------2----|  next line
   g---------4--------6--1--2--4--1--2--4--6--4--2--4-|
   d---7--6--4--7--6--6--2--2--4--2--2--4--6--4--2--4-|
   a---7--6--2--7--6--2--2--0--2--2--0--2--4--2--0--2-|
   E---5--4-----5--4-----0--------0-------------------|


   e------------------------------------------| Repeat as needed
   b------------------------------------------|
   g------------------------------------------|
   d------------0--0--2--------2--4b--2--4----|
   a----------2--2------0-0-3h4---------------|
   E--0-0-3h4---------------------------------|


That's pretty much the whole song I'm going to put the solo part in later for you
guitarist willing to learn it, its lighting fast and makes me feel like crap cause
i cant pull it off good enough. im going to work on the riffs in the middle of the
song soon so you can have the whole song tabbed
have fun with it!!!
Comments