Brad Paisley - Mud On The Tires Chords & Tabs

 

Mud On The Tires Chords & Tabs

Brad Paisley Chords & Tabs

Version: 2 Type: Tab

Mud On The Tires Tab

capo 2Fr     

h=hammer on
[ Tab from: http://www.guitartabs.cc/tabs/b/brad_paisley/mud_on_the_tires_tab_ver_2.html ]
e|------------------------------------------------------------|
b|-------1---------------3----1-1--------0--------------------|
g|-----0-------0-0h2-0-------------0h2-2------------0---------|
d|-0h2-----0h2---0-----0-----------0------------------------3-|
a|-3-------------2-----2---0----------------2h3-2-2------3----|
e|------------------------------------------3----------1------|

e|-----------------------------------------------|
b|--------------------------------------1---0----|
g|----0------0h2----0----------0-----------------|
d|---------3------3------3-----0--0h2------------|
a|-------3------------------------------------0--|
e|-1-------------------1----3--------------------|