Brad Paisley - Little Moments Chords & Tabs

 

Little Moments Chords & Tabs

Brad Paisley Chords & Tabs

Version: 1 Type: Tab 0 ratings
1 star 2 stars 3 stars 4 stars 5 stars
comments

Little Moments Tab

e ---------------------------------------|------------------------------|
B ---------------------------------------|------------------------------|
G ---------------------------------------|--------------------2--4(b)---|
D --2(h)4--2----2------------------------|--------------2(h)4-----------|
A ------------4---2(h)4--4-4-4-4(b)--2---|--------2(h)4-----------------|
E -------------------------------------0-|--2(h)4-----------------------|


e ------------7------|
B --Bend All--7------|
G --6-6-6-6-6-6------|
D -------------------|
A ---------------7---|
E -------------------|   
Thats All I Know. Please correct any mistakes.
[ Tab from: http://www.guitartabs.cc/tabs/b/brad_paisley/little_moments_tab.html ]
Comments