Braco - Waste The Day Chords & Tabs

 

Waste The Day Chords & Tabs

Braco Chords & Tabs

Version: 2 Type: Tab 0 ratings
1 star 2 stars 3 stars 4 stars 5 stars
comments

Waste The Day Tab

Braco 
Waste The Day  
standard tuning  


These guys rock they sound a lot like seatle sound of early 90's 
Check them out on www.mp3.com/braco  
                    
    verse                    Play clean
e - - - - - - - -- - -- - ---------------------------------------------------------------------------------
b ---------------------------------------------------------------------------------------------------------
g ---------------------------------------------------------------------------------------------------------
d ------------4----------4----------4------2---------------4-----------4----------4-----2------------    repeats  
a ----------4---------4-----------4--------2-------------4-----------4----------4-------2------------
e ------2-------0--2--------0--2----------------------2-------0--2-------0--2----------------------
[ Tab from: http://www.guitartabs.cc/tabs/b/braco/waste_the_day_tab_ver_2.html ]
                    W/ distortion 
  chorus         strumming pattern not included listen to song to get rhythm
e-------------------------------------------------------------------------------------------------------
b ---------------------------------------2-----------------------------------------------------------------
g ---------------------------------------2---------------------------------------------------------------
d ------4----------4-----------4---------2------------4----------4----------4-------2------------     repeats 
a ------4----------4-----------4----------------------4----------4----------4-------2------------
e ------2-------0--2--------0--2----------------------2-------0--2-------0--2----------------------


There are a few fills and a solo which can be easily improvised. 
That is about it a very easy song that sounds great played loud 


  

  
Comments