Bracket - 2rak005 Chords & Tabs

 

2rak005 Chords & Tabs

Bracket Chords & Tabs

Version: 1 Type: Bass Tab 0 ratings
1 star 2 stars 3 stars 4 stars 5 stars
comments

2rak005 Bass Tab

-----------------------------------------------------------------------
                2RAK005     BRACKET     
-----------------------------------------------------------------------

> MEANS STRUM

INTRO
G]-----------------------------]
D]-----------------------------]
A]-2-2-2-2-2--2-2-2--2-2-2-2-2-]
E]-----------------------------]

VERSE
G]----------------------------------------]
D]----------------------------------------]
A]-2>-------2>-2>-------2>----2>----------]
E]----2>-0>-------2>-0>----4>----4>-0>-2>-]
[ Tab from: http://www.guitartabs.cc/tabs/b/bracket/2rak005_btab.html ]
AND IF I TELL A LIE.....
G]-----------------------------------------------------------------------]
D]------------------------------2-2-4-------2-2-4------2-2-4-------2-2-4-]
A]----------------2>-------2-2-4------2-2-4------2-2-4-------2-2-4-------]
E]-4>-3>-2>-1>-0>----2>-0>-----------------------------------------------]

VERSE
AND IF I TELL A LIE

BRIDGE
G]---------------]
D]---------------]
A]---2>----2>-4>-]
E]-2----2>-------]

0VER SOLO
G]-------------]
D]-------2-2-4-]
A]-2-2-4-------]
E]-------------]




Comments