Bracket - 2 Rak 005 Chords & Tabs

 

2 Rak 005 Chords & Tabs

Bracket Chords & Tabs

Version: 1 Type: Tab 0 ratings
1 star 2 stars 3 stars 4 stars 5 stars
comments

2 Rak 005 Tab

Mxtabs [http://www.mxtabs.net]
Band: Bracket
Song: 2 Rak 005
Tabber: punklege

this should be right


Intro

E|---------------------|
B|---------------------|
G|---------------------|
D|--99999--999--99999--|
A|--99999--999--99999--|
E|--77777--777--77777--|

Verse

E|------------------------------------------|
B|------------------------------------------|
G|----------------------99999999------------|
D|--99999999--44444444--99999999--99999999--|  X 2
A|--99999999--44444444--77777777--99999999--|
E|--77777777--22222222------------77777777--|

Bridge

E|--------------------------------------------|
B|--------------------------------------------|
G|--------------------------------9999--------|
D|--66666666--99999999--66666666--9999--4444--|
A|--66666666--99999999--66666666--7777--4444--|
E|--44444444--77777777--44444444--------2222--|


E|------------------------------------------|
B|------------------------------------------|
G|--------------------------------66666666--|
D|--66666666--99999999--66666666--66666666--|
A|--66666666--99999999--66666666--44444444--|
E|--44444444--77777777--44444444------------|

[ Tab from: http://www.guitartabs.cc/tabs/b/bracket/2_rak_005_tab.html ]
E|------------------------------------------|
B|------------------------------------------|
G|--99999999----------------------99999999--|
D|--99999999--99999999--44444444--99999999--|
A|--77777777--99999999--44444444--77777777--|
E|------------77777777--22222222------------|


E|---------------------------------|
B|---------------------------------|
G|-----99------99------99------99--|
D|--9--99--99--99--99--99--99--99--|
A|--9--77--99--77--99--77--99--77--|
E|--7------77------77------77------|

Verse

E|------------------------------------------|
B|------------------------------------------|
G|----------------------99999999------------|
D|--99999999--44444444--99999999--99999999--|  X 2
A|--99999999--44444444--77777777--99999999--|
E|--77777777--22222222------------77777777--|


Bridge


pre solo

E|------------------------------|
B|------------------------------|
G|------------------9999--------|
D|--4~-99999999--4~-9999--4444--|
A|--4~-99999999--4~-7777--4444--|
E|--2~-77777777--2~-------2222--|

plays with solo


E|-----------|
B|-----------|
G|-----9999--|
D|--9--9999--|  X 8
A|--9--7777--|
E|--7--------|

order:

Intro

Verse (PM)

Bridge.


any comments or stuff, get in touch

Mailto:the_original_lege@hotmail.com
Comments