Br549 - Cherokee Boogie Chords & Tabs

 

Cherokee Boogie Chords & Tabs

Br549 Chords & Tabs

Version: 2 Type: Tab 0 ratings
1 star 2 stars 3 stars 4 stars 5 stars
comments

Cherokee Boogie Tab

   
This song is a basic I-IV-V progression in G.  Here are the chords and the first guitar solo.


| G | G | G | G |
| C | C | G | G |
| D | D | G | G |



e|---------------------------------------|---------------------------------------|
B|-2/3s2/3--0----------2/3s2/3--0--------|-2/3s2/3--0----------2/3s2/3--0--------|
G|-3/4s3/4----0-2-0----3/4s3/4----0-2-0--|-3/4s3/4----0-2-0----3/4s3/4----0-2-0--|
D|---------------------------------------|---------------------------------------|
A|---------------------------------------|---------------------------------------|
E|---------------------------------------|---------------------------------------|

[ Tab from: http://www.guitartabs.cc/tabs/b/br549/cherokee_boogie_tab_ver_2.html ]
e|---------------------------------------|------0--------0--------0--------0-----|
B|-1/2s1/2--0----------1/2s1/2--0--------|---------------------------------------|
G|-2/3s3/3----0-2-0----2/3s2/3----0-2-0--|-3h4-----3h4------3h4------3h4---------|
D|---------------------------------------|---------------------------------------|
A|---------------------------------------|---------------------------------------|
E|---------------------------------------|---------------------------------------|

e|---------------------------------------|---------------------------------------|
B|--------------------------8--8---------|-------------2/3---2/3---2/3---2/3-----|
G|-5-----5--4--5/7-----/7--------7s5-----|-------------3/4---3/4---3/4---3/4-----|
D|------------------------------------5s2|/5-------------------------------------|
A|---------------------------------------|---------------------------------------|
E|---------------------------------------|---------------------------------------|




| B  Bend
| R  Release 
| /  slide up
| s  slide down
| h  hammer-on
| p  pull-off
| ~  vibrato
| +  harmonic
| x  Mute note
Comments