Boyz Ii Men - Water Runs Dry Chords & Tabs

 

Water Runs Dry Chords & Tabs

Boyz Ii Men Chords & Tabs

Version: 1 Type: Tab 0 ratings
1 star 2 stars 3 stars 4 stars 5 stars
comments

Water Runs Dry Tab

   
-------------------------------------------------------------------------------
			     SONG NAME - Band Name
-------------------------------------------------------------------------------
Tabbed by:Jeff Kamungu
Email:geoffykom@yahoo.com

Tuning:Standard

        C                 G (onB)                  Am
e|----------------|--------------------------|-------------------------------|
B|--1-------------|--3-----------------------|--1----------------------------|
G|------0---------|--------0-----------------|----------0--------------------|
D|-----------2----|---------------0----------|-----------------2-------------|
A|--3-------------|--2-----------------------|--0----------------------------|
E|----------------|--------------------------|-------------------------------|

         G
e|--------------------|---------------------|--------------------------------|
B|--0-----------------|--1------------------|--3-----------------------------|
G|--------0-----------|---------0-----------|--------0-----------------------|
D|--------------0-----|---------------0-h-2-|--------------2-----------------|
A|--------------------|--3------------------|--2-----------------------------|
E|--3-----------------|---------------------|--------------------------------|

e|--------------------|-------------------|----------------------------------|
B|--1-x---------------|--0----------------|--1-------------------------------|
G|--------------------|----------0--------|--------0-------------------------|
D|--------------------|-----------------0-|-------------2--------------------|
A|--0-x---------------|-------------------|--3-------------------------------|
E|--------------------|--3----------------|----------------------------------|

     G (on B)            Am7                G
e|----------------|------------------|---------------------------------------|
B|--3-------------|--1---------------|--0------------------------------------|
G|--------0-------|----------0-------|---------------------------------------|
D|-------------0--|------------2-----|---------------------------------------|
A|--2-------------|--0---------------|---------------------------------------|
E|----------------|------------------|--3------------------------------------|

         F                E7                 Am7
e|----------------|----------------|------------------------------------------|
B|----------------|----------------|--1---------------------------------------|
G|--2-------------|--1-------------|-----------0------------------------------|
D|-------0--------|--------0-------|---------------------2--------------------|
A|-------------3--|-------------2--|--0---------------------------------------|
E|--1-------------|--0-------------|------------------------------------------|
[ Tab from: http://www.guitartabs.cc/tabs/b/boyz_ii_men/water_runs_dry_tab.html ]
           C (on G)            D9
e|----------------------|--0--------------------|----------------------------|
B|--1-------------------|--1--------------------|----------------------------|
G|----------0-----------|--2--------------------|----------------------------|
D|-----------------2----|--0--------------------|----------------------------|
A|----------------------|--0--------------------|----------------------------|
E|--3-------------------|--2--------------------|----------------------------|

Chorus:     F                     Em                   Dm7         (x2)
e|--1-------------------|--3--------------------|--1-------------------------|
B|-----------------1----|-----------------------|--------1-------------------|
G|---------2------------|-----------------------|--------------2-------------|
D|--3-------------------|--2--------------------|--0-------------------------|
A|----------------------|-----------------------|----------------------------|
E|----------------------|-----------------------|----------------------------|

      F     E         Am7           D7       Dm7   E|      F (onG)
e|-1-----|-0-------|-0---------|-0---------|-1---|-3--|--1---------------------|
B|-------|----0----|----1------|-----------|-----|----|--1---------------------|
G|-------|------1--|--------2--|--------4--|-----|----|--2---------------------|
D|-3-----|-2-------|-----------|-----5-----|-0---|-2--|--3---------------------|
A|-------|---------|-0---------|-5---------|-----|----|------------------------|
E|-------|---------|-----------|-----------|-----|----|--3---------------------|
This is my version of how i think the song is done though it has to be understood that
the song is played with more than one instrument, the bass in particular making the whole
difference. This is a solo version.Try it!


We don't even talk anymore
And we don't even know what we argue about
Don't even say I love you no more
'cause saying how we feel is no longer allowed
Some people will work things out
And some just don't know how to change

Chorus:
Let's don't wait till the water runs dry
We might watch our whole lives pass us by
Let's don't wait till the water runs dry
We'll make the biggest mistake of our lives
Don't do it baby

Now they can see the tears in our eyes
But we deny the pain that lies deep in our hearts
Well maybe that's a pain we can't hide
'cause everybody knows that we're both torn apart
Why do we hurt each other
Why do we push love away

Chorus

Don't do it baby
Don't do it baby
Wait
Watch
Don't wait for the water
Wait
Don't wait

Some people will work things out
And some just don't know how to change

Chorus

Wait
Don't do it baby
Wait
Don't do it baby
Wait
Watch
Wait
No, no baby
We might watch our whole lives, yeah
Don't wait for the water



|==============================================================================
Comments