Boyz Ii Men - Baby Cmon Chords & Tabs

 

Baby Cmon Chords & Tabs

Boyz Ii Men Chords & Tabs

Version: 1 Type: Tab 0 ratings
1 star 2 stars 3 stars 4 stars 5 stars
comments

Baby Cmon Tab

   
-------------------------------------------------------------------------------
			     Baby Cmon-Boyz II Men
-------------------------------------------------------------------------------
Tabbed by:Jeff Kamungu
Email:geoffykom@yahoo.com
[ Tab from: http://www.guitartabs.cc/tabs/b/boyz_ii_men/baby_cmon_tab.html ]
Tuning:Droped to D
       Em7              Am7           Em7              Am7
d|----------------|--5-------5--|---------------|--5--------5-------|--------|
A|---------2---5--|--3-------3--|--------2---5--|--3--------3-------|--------|
F|---2--4---------|--2-------2--|--2--4---------|--2--------2-------|--------|
C|---2------------|--4-------4--|--2------------|--4--------4-------|--------|
G|---4------------|--2-------2--|--4------------|--2--------2-------|--------|
D|--2-------------|-------------|--2------------|-----------------0-|--------|


| /  slide up
| \  slide down
| h  hammer-on
| p  pull-off
| ~  vibrato
| +  harmonic
| x  Mute note
===============================================================================
Comments