Boys Night Out - Yeah No I Know Chords & Tabs

 

Yeah No I Know Chords & Tabs

Boys Night Out Chords & Tabs

Version: 2 Type: Tab 0 ratings
1 star 2 stars 3 stars 4 stars 5 stars
comments

Yeah No I Know Tab

this song is pretty simple

e|-------------------------------------------|
B|------------9-7-6----6---------------------|
G|---------6--------6------------------------|
D|------6-----------------3------------------|
A|-1------------------------4-------4--------|
E|---2------------------------2--2h4---------|
[ Tab from: http://www.guitartabs.cc/tabs/b/boys_night_out/yeah_no_i_know_tab_ver_2.html ]
e|-------------------------------------------|
B|-----------6-6h7p6-9-7-6-------------------|
G|---------6---------------------------------|
D|------6-------------------3----------------|
A|-1--------------------------4--------4-----|
E|---2--------------------------2--2h4-------|

jsut repeat that a bunch of times. Bend the strings and sometimes, and throw in some 
off's a stuff. You shoudl be able to get the feel for the song.

Later, Perri
Comments