Boys Night Out - Medicating Chords & Tabs

 

Medicating Chords & Tabs

Boys Night Out Chords & Tabs

Version: 3 Type: Tab 0 ratings
1 star 2 stars 3 stars 4 stars 5 stars
comments

Medicating Tab

   
Boys Night Out
Medicating

Any questions email mikeyyyc@gmail.com

Tuned down 1 whole step (D-G-C-F-A-d)

Intro
Guitar 1
d|-------------------------------|
A|-------------------------------|
F|-4-----------------------------|
C|-x-x18-------------------------|
G|-2-----------------------------|
D|-------------------------------|

Guitar 2
d|------4-2-0--------------------|
A|-0-0---------4--7--5-----------|
F|-------------------------------|
C|-------------------------------|
G|-------------------------------|
D|-------------------------------|

d|-----4-2-0-------0--4p2p0--7---|
A|-0-0---------0h2---------------|
F|-------------------------------|
C|-------------------------------|
G|-------------------------------|
D|-------------------------------|

Guitar 1
d|-------------------------------|
A|-------------------------------|
F|-44-4-4-4-4-4-44---------------|
C|-xx-x-x-x-x-x-xx---------------| x2
G|-22-2-2-2-2-2-22---------------|
D|-------------------------------|

Guitar 2
d|-------------------------------|
A|--r----------------------------|
F|--e---88-8-8-8-8----------4----|
C|--s---xx-x-x-x-x--444-4/6------|
G|--t---66-6-6-6-6--333----------|
D|-------------------------------|

Verse

Guitar 1
d|-------------------------------|
A|-------------------------------|
F|--4~-----4~--------------------|
C|--4~-----2~--------------------|
G|--2~-----0~--------------------|
D|-------------------------------|

Guitar 2 (Finger Tapping, use root chords of guitar 1)
d|---------------------------------------|
A|---------------------------------------|
F|---------------------------------------|
C|-14p6-----------14p6-------------------| x2
G|------14p4-12p4------14p4--12/14/12----|
D|---------------------------------------|

d|---------------------------------------|
A|---------------------------------------|
F|------------------12p4-----------------|
C|-12p2------------------12p2------------| x2
G|------12p0------------------12p0-------|
D|------------12p0-----------------12p0--|

Pre-Verse
Both Guitars
d|-------------------------------|
A|-------------------------------|
F|-4----------------4------------|
C|-4-x16--444--4/6---------------|
G|-2------333--------------------|
D|-------------------------------|

Verse again

Prechorus
Guitar 1
d|-------------------------------|
A|-------------------------------|
F|-4~----4-----------------------|
C|-x-----x-----\\\\\\pickslide---|
G|-2~----2-----------------------|
D|-------------------------------|

Guitar 2
d|-------------------------------|
A|-------------------------------|
F|-4~----8-----------------------|
C|-x-----x-----\\\\\\pickslide---|
G|-2~----6-----------------------|
D|-------------------------------|

Chorus
Both guitars
d|--------------------------------------------|
A|--------------------------------------------|
F|-6------1616-14-13-------1313-11-13---------|
C|-6-x16---x-x--x--x---7----x-x-x---x---------|          x2
G|-4------1414-12-11---7---1111-9--11---------|
D|---------------------5----------------------|
[ Tab from: http://www.guitartabs.cc/tabs/b/boys_night_out/medicating_tab_ver_3.html ]
First ending                                                             
d|-------------------------------|
A|-------------------------------|
F|------9-8--13--11--------------|
C|--2---x-x---x--x---------------|
G|--2---7-6--11--9---------------|
D|--0----------------------------|

Second ending
d|---------------------------------------------|
A|---------------------------------------------|
F|-----------------9-8--13--11------44-66-44---|
C|-2222-2-2222-2---x-x---x--x----22------------|
G|-2222-2-2222-2---7-6--11--9------------------|
D|-0000-0-0000-0-------------------------------|

Pre Verse
Guitar 1
d|-------------------------------|
A|-------------------------------|
F|--------------4----------------|
C|-----2-6h4h2-------------------|
G|-2h4---------------------------|
D|-------------------------------|

Verse 2 is normal for the first half, then its

Both Guitars
d|-------------------------------|
A|----------------7*-------------|
F|-6--------------7*-------------|
C|-6--------------7*-------------| x2
G|-4--4444444444-----------------|
D|-------------------------------|

d|-------------------------------|
A|-------------------------------|
F|-------------------------------|
C|-7~----------------------------|
G|-7~----------------------------|
D|-5~----------------------------|

Guitar 1
d|--4/5/4p0-2/4/2p0--------------|
A|-------------------------------|
F|-------------------------------|
C|-------------------------------|
G|-------------------------------|
D|-------------------------------|

Chorus is regular

Bridge
guitar 1
d|-------------------------------|
A|-------------------------------|
F|-------------------------------|
C|-0---2222222222----------------| x3
G|-7/--4444444444----------------|
D|-------------------------------|

Guitar 2
d|-------------------------------|
A|-------------------------------|
F|-------------------------------|
C|-------------------22----------| x3
G|-------------------22----------|
D|-------------------00----------|

Both GUitars

d|-------------------------------|
A|-------------------------------|
F|-------------------------------|
C|-88-8-8-8----------------------|
G|-77-7-7-7--9h11--9-------------|
D|---------------------2-3-------|

d|---------------------------------------------|
A|---------------------------------------------|
F|---------------------------------------------|
C|-0---2222222222--0-0-88888888----------------| x4
G|-7/--4444444444--7-6-77777777--9h11 9--------|
D|---------------------------------------2-3---|

Rest

d|-------------------------------|
A|-------------------------------|
F|-------------------------------|
C|-------------------------------|
G|--7-6-11--9--------------------|
D|-------------------------------|

Chorus

Heavy Chorus
d|----------------------------------------|
A|----------------------------------------|
F|-6------15-15-14-13------13-13-11-13----|
C|-6-x16---x--x--x--x--7----x--x-x---x----| etc...
G|-4------13-13-12-11--7---11-11-9--11----|
D|-4-------------------5------------------|

Ending
d|-------------------------------|
A|--------------------------4----|
F|-----------------2--6h4h2------|
C|----44-66-44-2h4---------------|
G|-22----------------------------|
D|-------------------------------|

d|-------------------------------|
A|-------------------------------|
F|-6-6\--------------------------|
C|-6-6\--------------------------|
G|-4-4\--------------------------|
D|-4-4\--------------------------|
Comments