Boys Night Out - Medicating Chords & Tabs

 

Medicating Chords & Tabs

Boys Night Out Chords & Tabs

Version: 2 Type: Tab 0 ratings
1 star 2 stars 3 stars 4 stars 5 stars
comments

Medicating Tab

Tuning: Drop D
Intro

e|------------------|
B|---75--755555-----|
G|-77--77-----------|
D|-999999999999-----|
A|------------------|
D|------------------|

e|--------------------------|
B|---75-------------------9-|
G|-77--77---------11-9------|
D|-999999-9-11-12------12---|
A|--------------------------|
D|--------------------------|

Pre-Verse

e|-----------------------------|
B|-----------------------------|
G|-444444444-666666---------2--|
D|-444444444-444444-444-2h4----|
A|-222222222-222222-222--------|
D|-----------------------------|

Verse

Guitar 1

e|------------------|
B|------------------|
G|-4~---------------|
D|-4~-5~------------| X 2
A|-2~-5~------------|
D|----5~------------|

Guitar 2 (tapping)
e|----------------------------------------------------------------|
B|----------------------------------------------------------------|
G|-(7)----9p7------9p7-------------9p7----------------------------|
D|-(7)-------9p7------9p7-------------9p7---11\12/11p7------------|
A|-(5)----------9p5------12\14/12p5------9p5----------12\14/12p5--|
D|----------------------------------------------------------------|

e|----------------------------------------------------------------|
B|----------------------------------------------------------------|
G|-(7)---------------11p7--------------11p7--------11\12/11p7-xxx-|
D|-(7)----12p7-9p7-------12p7--------------12p7---------------xxx-|
A|-(5)------------9p5--------12\14/12p5--------12p5-----------xxx-|
D|----------------------------------------------------------------|

Repeat Pre-Verse w/o the variation on G

e|----------------------------------------------------------------|
B|----------------------------------------------------------------|
G|-(7)----9p7------9p7-------------9p7----------------------------|
D|-(7)-------9p7------9p7-------------9p7---11\12/11p7------------|
A|-(5)----------9p5------12\14/12p5------9p5----------12\14/12p5--|
D|----------------------------------------------------------------|

e|-------------------------------------------------------------------------------|
B|-------------------------------------------------------------------------------|
G|-(7)---------------11p7--------------11p7--------11\12/11p7--------------------|
D|-(7)----12p7-9p7-------12p7--------------12p7--------------12\14/12p7----------|
A|-(5)------------9p5--------12\14/12p5--------12p5------------------------------|
D|-------------------------------------------------------------------------------|

Prechorus
[ Tab from: http://www.guitartabs.cc/tabs/b/boys_night_out/medicating_tab_ver_2.html ]
e|---------------------|
B|---------------------|
G|---------------------|
D|-----7--11-----------|
A|-----7--9------------|
D|-----7--9------------|

Chorus

e|----------------------------------------------------------------------|
B|----------------------------------------------------------------------|
G|-444444444444444444-1414-12-11------11-11--9-7--------7/6-11-9--------|
D|-444444444444444444-----------555555-----------000000-----------------| X 2
A|-222222222222222222-1212-10-9-555555-9--9--7-5-000000-5/4-9-7---------|
D|------------------------------555555-----------000000-----------------|


e|------------------------------|
B|------------------------------|
G|--------------------2---------|
D|---22-44------4h5p4-----------|
A|-22-----55-245-----5----------|
D|------------------------------|

Repeat Verse twice

Bridge [ring out the first and middle chords]

e|---------------------------------------------------------------------------|
B|---------------------------------------------------------------------------|
G|-4-4444444444444-44-444444444444-------------------------------------------|
D|-4-4444444444444-44-4444444444445-5555555555555-55-5555555555--4+----------|
A|-2-2222222222222-22-2222222222225-5555555555555-55-5555555555--------------|
D|--------------------------------5-5555555555555-55-5555555555--------------|

Breakdown

e|-------------------------------------------------------------------------|
B|-------------------------------------------------------------------------|
G|-------------------------------------------------------------------------|
D|--4/0000000000-00-4/0000000000-00-4/0000000000-00--44-4-44--2h4p2--------|
A|--5/2222222222-00-5/2222222222-00-5/2222222222-00--22-2-22---------------|
D|---------------00--------------00--------------00----------------2-4-----|

e|----------------------------------------|
B|----------------------------------------|
G|----------------------------------------|
D|--4/0000000000-4-2-00000000-2h4p2-------| x 4
A|--5/2222222222-5-4-11111111-------------|
D|---------------------------------2-4----|

On 4th time, riff ends as follows

e|----------------------|
B|----------------------|
G|-----2-----7-44-------|
D|--2h4------7-44-------|
A|-----------5-22-------|
D|-------2-4------------|

e|----------------------|
B|----------------------|
G|-7/6--11-9------------|
D|----------------------|
A|-5/4--9--7------------|
D|----------------------|

Repeat Chorus

Ending
e|----------------------------------|
B|----------------------------------|
G|-----------------------2-4-4//----|
D|---22-44-55------4h5p4---4-4//----|
A|-22---------2-4-5-----5--2-2//----|
D|----------------------------------|
Comments