Boys Night Out - Medicating Chords & Tabs

 

Medicating Chords & Tabs

Boys Night Out Chords & Tabs

Version: 1 Type: Tab 0 ratings
1 star 2 stars 3 stars 4 stars 5 stars
comments

Medicating Tab

   
----------------------------------------------------------------------------
Medicating - Boys Night Out - Off the new album TRAINWRECK - Out July 26
----------------------------------------------------------------------------
Tabbed by:Spencer S.

Tuning:Drop D  THE RYTHM IS NOT TABBED, its just the chords.

 INTRO:
 1st Guitar:
e|-------------------------------------------------------------------------|
B|-------------------------------------------------------------------------|
G|--4----------------------------------------------------------------------|
D|--x--x16 (i think)-------------------------------------------------------|
A|--2----------------------------------------------------------------------|
D|-------------------------------------------------------------------------|

 2nd Guitar:
e|-------------------------------------------------5-----------------------|
B|--7--5--3--2--5--3----7--5--3---------2h5--3p2---------------------------|
G|--------------------------------2h4--------------------------------------|
D|-------------------------------------------------------------------------|
A|-------------------------------------------------------------------------|
D|-------------------------------------------------------------------------|

 Both Guitars:
e|-------------------------------------------------------------------------|
B|-----2-------------------------------------------------------------------|
G|--2--2-------------------------------------------------------------------|
D|--2--2-------------------------------------------------------------------|
A|--0--0-------------------------------------------------------------------|
D|-------------------------------------------------------------------------|

 2nd Guitar:
e|-------------------------------------------------------------------------|
B|-------------------------------------------------------------------------|
G|-------------2-----------------------------------------------------------|
D|--4-4-4--2h4-------------------------------------------------------------|
A|--2-2-2------------------------------------------------------------------|
D|-------------------------------------------------------------------------|

 VERSE 1:
 When you wake up to white walls and endless halls
 there's an emptiness that echoes through it all
 so sit back in your bed, with your mind medicated
 and your senses stuck on the sick sound of the dead

 Guitar 1:
e|-------2~----------------2--2--------------------------------------------|
B|-------3~---3--3---------3----3------------------------------------------|
G|--4~---2~---4----4-------2------2----------------------------------------|
D|--4~--------4------4-----------------------------------------------------|
A|--2~--------2--------2---------------------------------------------------|
D|-------------------------------------------------------------------------|

 Guitar 2 (Not sure on this part, i just improvise):
e|-------------------------------------------------------------------------|
B|-------------------------------------------------------------------------|
G|---------2---------------------------------------------------------------|
D|--2h4p2----4-2-----------------------------------------------------------|
A|----------------2--------------------------------------------------------|
D|-------------------------------------------------------------------------|

In between verse 1 and 2:
 Both Guitars:
e|--xxx--------------------------------------------------------------------|
B|--xxx--------------------------------------------------------------------|
G|--xxx--4-----------------------------------------------------------------|
D|--xxx--4-----------------------------------------------------------------|
A|--xxx--2-----------------------------------------------------------------|
D|--xxx--------------------------------------------------------------------|

 Guitar 2:
e|-------------------------------------------------------------------------|
B|-------------------------------------------------------------------------|
G|-------------2-----------------------------------------------------------|
D|--4-4-4--2h4-------------------------------------------------------------|
A|--2-2-2------------------------------------------------------------------|
D|-------------------------------------------------------------------------|

VERSE 2:
 You call for the doctor, its all you've got anymore
 he's the ticket to the life you had before
 Guitar 1:
e|-------2~----------------------------------------------------------------|
B|-------3~----------------------------------------------------------------|
G|--4~---2~----------------------------------------------------------------|
D|--4~---------------------------------------------------------------------|
A|--2~---------------------------------------------------------------------|
D|-------------------------------------------------------------------------|

 Guitar 2 (Not sure on this part, i just improvise):
e|-------------------------------------------------------------------------|
B|-------------------------------------------------------------------------|
G|---------2---------------------------------------------------------------|
D|--2h4p2----4-2-----------------------------------------------------------|
A|----------------2--------------------------------------------------------|
D|-------------------------------------------------------------------------|

PRE-CHORUS:
 If I could just make him see that I don't need this

 Both Guitars:
e|-------------------------------------------------------------------------|
B|------2~-----------------------------------------------------------------|
G|--2~--2~-----------------------------------------------------------------|
D|--2~--2~-----------------------------------------------------------------|
A|--0~--0~-----------------------------------------------------------------|
D|----------------------------P-I-C-K--S-L-I-D-E---------------------------|

CHORUS:
 doctor, doctor what am I here for?
 can't you see that I don't need this place?
 I don't need these walls, I'm no threat at all

 Guitar 1:
e|-------------------------------------------------------------------------|
B|-------------------------------------------------------------------------|
G|--4----------------------------------------------------------------------|
D|--4--5--0--------4--2----------------------------------------------------|
A|--2--5--0--5--4----------------------------------------------------------|
D|-----5--0----------------------------------------------------------------|
[ Tab from: http://www.guitartabs.cc/tabs/b/boys_night_out/medicating_tab.html ]
 Guitar 2:
e|-------------------------------------------------------------------------|
B|-------------------------------------------------------------------------|
G|--14--12--11----------11--9--7-------------------------------------------|
D|---x---x---x-----------x--x--x---------4--2------------------------------|
A|--12--10---9-----------9--7--5---5--4------------------------------------|
D|-------------------------------------------------------------------------|

 Guitar 1:
e|-------------------------------------------------------------------------|
B|-------------------------------------------------------------------------|
G|--4----------------------------------------------------------------------|
D|--4--5--0--------4--2----------------------------------------------------|
A|--2--5--0--5--4----------------------------------------------------------|
D|-----5--0----------------------------------------------------------------|

 Guitar 2:
e|-------------------------------------------------------------------------|
B|-------------------------------------------------------------------------|
G|--14--12--11----------11--9--7-------------------------------------------|
D|---x---x---x-----------x--x--x---------4--2------------------------------|
A|--12--10---9-----------9--7--5---5--4------------------------------------|
D|-------------------------------------------------------------------------|

 Guitar 1:
e|-------------------------------------------------------------------------|
B|-------------------------------------------------------------------------|
G|-------------------------------------------------------------------------|
D|-----------4-4-2-2-------------------------------------------------------|
A|--2-2-5-5----------------------------------------------------------------|
D|-------------------------------------------------------------------------|

 Guitar 2:
e|-------------------------------------------------------------------------|
B|-------------------------------------------------------------------------|
G|--------------2----------------------------------------------------------|
D|------2-4-2-0------------------------------------------------------------|
A|--2-5--------------------------------------------------------------------|
D|-------------------------------------------------------------------------|

Verse 2 is pretty much the same as the verse but there is some different rythym
and some palm muting.  And instead of guitar one playing the D (232~) chord, he
plays (555~) on the low D string.  Guitar 2 does harmonics on the 5h fret of the
Estring.

Is there a way we could maybe, through therapy,
find a way to right and release me
I just need to be outside, even if supervised
back to my job, back to my life
yes I know what I've done and I regret it every day
if I could make things right, you know i'd find a way
but when I wake up to these white walls
and the endless halls of the hospital
I get lost in the emptiness
I've gone through it all

PRE-CHORUS:
 Guitar 2:
e|---------------------------------------------------------------------------|
B|--7h8p7--------------------------------------------------------------------|
G|---------7h97--------------------------------------------------------------|
D|--------------7------------------------------------------------------------|
A|---------------------------------------------------------------------------|
D|---------------------------------------------------------------------------|

REAPEAT CHORUS

PRE-BREAKDOWN:
e|---------------------------------------------------------------------------|
B|---------------------------------------------------------------------------|
G|---------------------------------------------------------------------------|
D|-----------4-4-2-2---------------------------------------------------------|
A|--2-2-5-5------------------------------------------------------------------|
D|---------------------------------------------------------------------------|

BREAKDOWN (With Rythym):
 Guitar 1:
e|---------------------------------------------------------------------------|
B|---------------------------------------------------------------------------|
G|---------------------------------------------------------------------------|
D|--7\4-4-4-4-4-4-4-4-4--------7\4-4-4-4-4-4-4-4-4---------------------------|
A|--5\2-2-2-2-2-2-2-2-2--------5\2-2-2-2-2-2-2-2-2---------------------------|
D|---------------------------------------------------------------------------|

Guitar 2:
e|-------------------------------------------------------------------------|
B|-------------------------------------------------------------------------|
G|-------------------------------------------------------------------------|
D|-----------------------0--0-----------------------0--0-------------------|
A|-----------------------0--0-----------------------0--0-------------------|
D|-----------------------0--0-----------------------0--0-------------------|

Guitar 1 (Cont.):
e|---------------------------------------------------------------------------|
B|---------------------------------------------------------------------------|
G|---------------------------------------------------------------------------|
D|--7\4-4-4-4-4-4-4-4-4--------4-4-4-4-4-4--2h4p2----------------------------|
A|--5\2-2-2-2-2-2-2-2-2--------2-2-2-2-2-2-----------------------------------|
D|-------------------------------------------------2--4----------------------|

Guitar 2 (Cont.):
e|---------------------------------------------------------------------------|
B|---------------------------------------------------------------------------|
G|---------------------------------------------------------------------------|
D|-----------------------0--0--4-4-4-4-4-4-----------------------------------|
A|-----------------------0--0--2-2-2-2-2-2-----------------------------------|
D|-----------------------0--0----------------------2--4----------------------|

Both Guitars:                    |epeat the (42) 9 times.
e|-------------------------------------------------------------------------|
B|-------------------------------------------------------------------------|
G|------------------------------2------------------------------------------|
D|--7\4-4-4-4-4-4-4-4-4---7-6---4--2h4p2-----------------------------------|
A|--5\2-2-2-2-2-2-2-2-2---5-4----------------------------------------------|
D|----------------------------------------2--4-----------------------------|

Last one (Before claps):
e|-----------|
B|-----------|
G|-----------|
D|--4-4\-----|
A|--2-2\-----|
D|-----------|

Repeat that 4 times.

 PRE-CHORUS:
e|-------------------------------------------------------------------------|
B|-------------------------------------------------------------------------|
G|-------------------------------------------------------------------------|
D|------4-2----------------------------------------------------------------|
A|--5-4--------------------------------------------------------------------|
D|-------------------------------------------------------------------------|

Then repeat chorus until the end of the song.


| /  slide up
| \  slide down
| h  hammer-on
| p  pull-off
| ~  vibrato
| +  harmonic
| x  Mute note
===============================================================================
Comments