Boys Night Out - Introducing Chords & Tabs

 

Introducing Chords & Tabs

Boys Night Out Chords & Tabs

Version: 1 Type: Bass Tab

Introducing Bass Tab

   
#----------------------------------PLEASE NOTE---------------------------------#
#This file is the author's own work and represents their interpretation of the #
#song. You may only use this file for private study, scholarship, or research. #
#------------------------------------------------------------------------------#

INTRODUCING (Bassline)
As recorded by Boys Night Out
(From the 2005 Album TRAINWRECK)


Transcribed by Mike Bottriell, the_dc_theory@hotmail.com

Wait for quite a while at the starting, but the bass isn't bad once it comes in.
If you want to hear what this sounds like...just download power tab editor. I heart BNO.

 Words by Connor Lovat-Fraser Music by Boys Night Out

 

Gtr I (E A D G) - 'Untitled'


  Q=71               Q=65     Q=71
 4/4
  Gtr I
  Wx43          Q  H     Q    H    +E  E S S E
|-------------|-------------|------------------|
|-------------|-------------|------------------|
|-------------|-------------|----------5-5-7-5-|
|-------------|---------12S=|=0----(0)---------|


  E. S S S Q  S S   S S  E   H    +E  e S S E   E. S S S Q  E S S E
|--------------------------|------------------|----------------------|
|------5-4--------/10-9----|------------------|----------------------|
|-3--5-----5--3h5-------10-|----------5-5-7-5-|-3--2-3-2-------------|
|--------------------------|-0----(0)---------|----------3--3-3-5-3--|


  e E Q.   e S S E   E. S S S Q  S S   S S  E   Q   Q.   e S S E
|------------------|--------------------------|------------------|
|------------------|------5-4--------/10-9----|------------------|
|-----7----5-5-7-5-|-3--5-----5--3h5-------10-|-7--(7)---5-5-7-5-|
|-0----------------|--------------------------|-----0------------|


  E. S S S S S S S  S S S S E   Q.   H    S S
|-----------------------------|---------------|
|------5-4-----7h9------9-7-9-|-0----0----0-2-|
|-3--3-----5-7-----10-7-------|---------------|
|-----------------------------|---------------|

[ Tab from: http://www.guitartabs.cc/tabs/b/boys_night_out/introducing_btab.html ]
  Q.   H    S S   Q.   Q.   S S E
|---------------|-----------------|
|---------------|-0---------5-4-5-|
|-2----2----0-2-|-----------------|
|---------------|------0----------|


  Q.   S +Q   S S S S S   W          W          W          W
|-----------------------|----------|----------|----------|------*|
|-----------------------|----------|----------|----------|------*|
|-2----2-(2)--0-2-0-----|----------|----------|----------|------*|
|-------------------3-5-|-0--------|-0--------|-0--------|-0----*|




--------------------------------------------------------------------------------


Duration Legend
---------------
W - whole; H - half; Q - quarter; E - 8th; S - 16th; T - 32nd; X - 64th; a - acciaccatura
+ - note tied to previous; . - note dotted; .. - note double dotted
Uncapitalized letters represent notes that are staccato (1/2 duration)
Irregular groupings are notated above the duration line
Duration letters will always appear directly above the note/fret number it represents the
duration for.  Duration letters with no fret number below them represent rests.  Multi-
bar rests are notated in the form Wxn, where n is the number of bars to rest for.  Low
melody durations appear below the staff

Tablature Legend
----------------
 h   - hammer-on
 p   - pull-off
 b   - bend
 pb  - pre-bend
 r   - bend release (if no number after the r, then release immediately)
 /\  - slide into or out of (from/to "nowhere")
 s   - legato slide
 S   - shift slide
 - natural harmonic
[n]  - artificial harmonic
n(n) - tapped harmonic
 ~   - vibrato
 tr  - trill
 T   - tap
 TP  - trem. picking
 PM  - palm muting
\n/  - tremolo bar dip; n = amount to dip
 \n  - tremolo bar down
 n/  - tremolo bar up
/n\  - tremolo bar inverted dip
 =   - hold bend; also acts as connecting device for hammers/pulls
 <> - volume swell (louder/softer)
 x   - on rhythm slash represents muted slash
 o   - on rhythm slash represents single note slash

Misc Legend
-----------
 |  - bar
||  - double bar
||o - repeat start
o|| - repeat end
*|  - double bar (ending)
 :  - bar (freetime)
 $  - Segno
 &  - Coda
Tempo markers -  = BPM(8/16=s8/s16), where s8 = swing 8ths, s16 = swing 16ths