Boys Night Out - I Got Punched In The Nose For Sticking My Face Into Other Peoples Buisness Chords & Tabs

 

I Got Punched In The Nose For Sticking My Face Into Other Peoples Buisness Chords & Tabs

Boys Night Out Chords & Tabs

Version: 1 Type: Bass Tab

I Got Punched In The Nose For Sticking My Face Into Other Peoples Buisness Bass Tab

   
-Chorus
|"You and me, you know that we.."|
G|------------------------------------------------------------------||
D|------------------------------------------------------------------||
A|------------4h5h6-1--------------------------(two times)----------||
D|8>>-9h8h7-5>--------1>>-3x3x-3-3x3x3x-3-11/8----------------------||

                         |"And Im gonna tear down the sky.."|
G|-----------------------|-------------------------------------------||
D|-----------------------|-------------------------------------------||
A|-------------4h5h6-1---|-------------------------------------------||
D|8>>-9h8h7-5>--------1>>|-333333~-55555-5x5x5x-111111x-111111x------||


G|------------------------------------||
D|------------------------------------||
A|------------------------------------||
D|333333~-55555-5x5x5x-1x1x1x1x1x1x1x-||


_Verse
 |"I hate being famous for my hits.."|
G|------------------------------------------------------------------------||
D|------------------------------------------------------------------------||
A|------------------------------------------------------------------------||
D|5>>-3x3x-3-3x3x-3-3x3x-3-3x3x-3-1>>-55-88-1010-13131313-----------------||
                                                 (thirteen)

G|-----------------------------------------------------------------------||
D|-----------------------------------------------------------------------||
A|-------------------------------------- 13131313----------13131313-13>>-||
D|5>>-333x-333x-333x-333x-1>>-55-88-1010--------55-88-1010---------------||

[ Tab from: http://www.guitartabs.cc/tabs/b/boys_night_out/i_got_punched_in_the_nose_for_sticking_my_face_into_other_peoples_buisness_btab.html ]
-solo
|"Drag my corpse through the cities"|
G|---------------------------------------------------------||
D|---------------------------------------------------------||
A|-----------------------5665-1>>-0------------------------||
D|8>>-0-1>>-5>-3h454-1>>------------1>>--5>>-3h454---------||

G|------------------------------------------------||
D|------------------------------------------------||
A|--------------5665------------------------------||
D|1x1x-1-1x1x-1-----------------------------------||

-Chorus
|"You and me, you know that we.."|
G|---------------------------------------------------------------------||
D|---------------------------------------------------------------------||
A|----------- 3h4h5-1-------------------------(two times)--------------||
D|8>>-9h8h7-5>--------1>>-3x3x-3-3x3x3x-3-11/8-------------------------||

G|-----------------------|
D|-----------------------|
A|-------------3h4h5-1---|
D|8>>-9h8h7-5>--------1>>|

|"Die!, That i'd die!"|
G|-----------------------------------------------|
D|-----------------------------------------------|
A|-----------------------------------------------|
D|-333333~--55555-5x5x5x--11111-1x-11111-1x------|
				
G|--------------------------|--------|
D|--------------------------|--------|
A|--------------------------|--------|
D|-333333~--55555-5x5x5x5x--|-11111x-|
                             |__x18__|

-breakdown
G|----------------|
D|----------------|
A|------5h8-8>-3>-|
D|-5-5>>----------|x1

-Bridge
|Baby, the blood's already been spilled.."|    
G|-------------------------------|
D|-------------------------------|
A|--------5h88888-5-3333-3-------|
D|-5-5>/8>----------------666666-|
 |____________x6_________________|

G|--------|
D|--------|
A|--------|
D|-5-5-5--|

-Outro
 |"but what if i promised to hold.."|                    
G|-------------------------|-------|
D|-------------------------|-------|
A|--------7h8-77775555-----|-------|
D|-5>>-8>>--------------6>>|-6-6-6-|
 |______x4_________________|last "TO SUFFER"|

 
~=let ring
x=mute
/=slide