Boys Night Out - Hold On Tightly Let Go Lightly Chords & Tabs

 

Hold On Tightly Let Go Lightly Chords & Tabs

Boys Night Out Chords & Tabs

Version: 1 Type: Tab 0 ratings
1 star 2 stars 3 stars 4 stars 5 stars
comments

Hold On Tightly Let Go Lightly Tab

Band:  Boys Night Out
Song:  Hold on tightly, Let Go Lightly
Tabbed by:  Milfman
Great Song

Guitar 1
 x2
E----------------------------------------------|
A-------------------------------------4----0---|
D-----4 2 4 2 ------4 2 4 2-----4 2 4--4 2---0-|
G--7 6-----------7 6---------7 6---------------|
B----------------------------------------------|
E----------------------------------------------|


Guitar 1
Continue alternating these two chords during
guitar 2's part

E--------------------------------------|
A---0 ---------------0 ----------------|
D---0 0 0 0 0 0 0 0--0 0 0 0 0 0 0000--|
G---2 2 2 2 2 2 2 2--2 2 2 2 2 2 2222--|
B---3 3 3 3 3 3 3 3--2 2 2 2 2 2 2222--|
E---x-x-x-x-x-x-x-x--x-x-x-x-x-x-xxxx--|
[ Tab from: http://www.guitartabs.cc/tabs/b/boys_night_out/hold_on_tightly_let_go_lightly_tab.html ]
Guitar 2
E------------------------------------------------|
A------------------------------------------------|
D------------------------------------------------|
G--6---6--6--6--6--6-6--6--6-6---6---6--6--6--6--|
B---5---5--5--5--5--5-5--5--5-5---5------5--5--5-|
E----5---5-----5--5----5--5----12--12-12--5--5---|


I can't figure out the middle part,they switch around alot of weird chords, so just use 
chords that stem from the low E.  If Someone figures out the middle please email it to 
at lmilf1356@yahoo.com.

Guitar 1
 x2
E----------------------------------------------|
A-------------------------------------4----0---|
D-----4 2 4 2 ------4 2 4 2-----4 2 4--4 2---0-|
G--7 6-----------7 6---------7 6---------------|
B----------------------------------------------|
E----------------------------------------------|

This is my first tab so give me a break
Comments