Boys Night Out - Anatomy Of The Journey Chords & Tabs

 

Anatomy Of The Journey Chords & Tabs

Boys Night Out Chords & Tabs

Version: 1 Type: Tab 0 ratings
1 star 2 stars 3 stars 4 stars 5 stars
comments

Anatomy Of The Journey Tab

   
drop d

e--------------------------------------------------------------------
b--------------------------------------------------------------------
g--------------------------------------------------------------------
d-----0------8-7-3-2----5-3-2--0-0-0-0-------------------------------2x
a-----0------8-7-3-2----5-3-2--0-0-0-0-------------------------------
d-----0------8-7-3-2----5-3-2--0-0-0-0-------------------------------

[ Tab from: http://www.guitartabs.cc/tabs/b/boys_night_out/anatomy_of_the_journey_tab.html ]
e----------------------------------------------------------------------
b-----------------13-10--------11-10--------------------13-11-10-11-10-
g-----------9-10---------------------10-9--------9-10-9----------------
d---0-0-0-0----------------0-0--------------0-0-0----------------------
a---0-0-0-0----------------0-0--------------0-0-0----------------------
d---0-0-0-0----------------0-0--------------0-0-0----------------------


any questions e-mail subsidedfailure@hotmail.com
Comments