Boys Night Out - Anatomy Of The Journey Chords & Tabs

 

Anatomy Of The Journey Chords & Tabs

Boys Night Out Chords & Tabs

Version: 1 Type: Bass Tab

Anatomy Of The Journey Bass Tab

   
Artist: Boys Night Out
Song: Anatomy Of The Journey
Album: Make Yourself Sick (2003)
Tabbed by Alex Morris

G|---------------------|
D|---8-7--------7h8-7--|
A|-------8-8p7~-------8|
D|0~-------------------|x2

G|--------------------------|
D|--------8-7--------7h8-7--|
A|------------8-8p7~-------8|
D|00000~--------------------|x2

G|----------------|
D|----------------|
A|----------------|
D|0000000000000000|

G|-------------------------------------|
D|--------------------3------5532200---|
A|---------------------335533--------3~|
D|000-------88-------------------------|

                                      


G|----------------------------------10-9-7-7h10p10|
D|-----------10---10--8---7h8p7-87----------------|
A|5555-----8---8-8--8---8---------8---------------|
D|------------------------------------------------|
                                       
G|-------------------------10-9-7|     
D|--10---10--8---7h8p7-87--------|         this whole riff x2
A|8---8-8--8---8---------8-------|
D|-------------------------------| 



[ Tab from: http://www.guitartabs.cc/tabs/b/boys_night_out/anatomy_of_the_journey_btab.html ]
D|---------------5----------2h3-3-2---------------------------------|
D|-------------3---3----3-3---------3---3-3-------------------------|
A|---8~-8h10-3--------1--------------------------8/10-10\8-88-88h10-|
D|0~----------------------------------3-----2--0--------------------|

G|------555------------2h333-2------------|
D|---3-3---3-33\---3-3---------3----3-3---|
A|-3-------------1------------------------|
D|-------------------------------3~-----2~|



G|10-10--X-12-10-X-12p10-10---10-10--|
D|12-12--X-12-12-X-12----12---10-10--|
A|0--0---0-0--0--0-0-----0----0------|
D|-----------------------------------|

G|X-12-10-X-12p10-10---10-9--X-9-7-X-7h10p7--5-5--5---|
D|X-10-10-X-10----10---8--8--X-8-8-X-8-------7-7--7---|
A|0-0--0--0-0-----0----0--0--0-0-0-0-0--------------0~|
D|----------------------------------------------------|



G|---------------------------------------------------------------------|
D|------------------------2--2h3-3-32------3----3-5-553-----3----------|
A|---------3/5-5-55/7-3-33-33--------3-1-11--111-----------------------|
D|0-000000----------------------------------------------3-33-333-222---|
                         
G|---------------------------------------------------------------------|
D|------------------------2--2h3-3-32------3----3-5-553-----3----------|
A|----3/5-55/7-7-77\5-3-33-33--------3-1-11--111-----------------------|
D|0-00--------------------------------------------------3-33-333-222---|
Repeat until the ending on open on low D string.



probably not 100% but pretty close. feel free to correct tab and resubmit.
R.I.P. THE FULLBLAST