Boys Like Girls - Learning To Fall Chords & Tabs

 

Boys Like Girls Chords & Tabs

Version: 1 Type: Tab 0 ratings
1 star 2 stars 3 stars 4 stars 5 stars
comments

Learning To Fall Tab

                           Learning to fall
                  |This is my best shot. It needs a lot|
                  |of work but with help it will be cor|
                  |ect.                                |

I Know the first verse is perfect because I saw him play it in concert
and this is what he is doing. Verse thanks to my guitar teacher.
Verse 1
e--33333333-33333333--------------------|
B--33333333-44444444-66666666-11111111--|\
G--33333333-33333333-77777777-22222222--| \
D--44444444-44444444-88888888-33333333--| / X 3 
A---------------------------------------|/
E---------------------------------------|

Pre-Chorus
e------3---3~--|\
B------3---4~--| \
G------3---3~--|  \
D------5---5~--|  / X 2
A--------------| /
E--------------|/
 "I keep it hidden...

Chorus
e---------------------------------------------|\ 
B---------------------------------------------| \ 
G---1010101010101010---------33333333---------|  \
D---1010101010101010-3333333-33333333-33333333|  / X 2
A---8-8-8-8-8-8-8-8--3333333-11111111-33333333| / 
E--------------------1111111----------11111111|/
 "I'm learning to fall...
[ Tab from: http://www.guitartabs.cc/tabs/b/boys_like_girls/learning_to_fall_tab.html ]
Verse 2
e-----------------------------------------------|\
B-----------------------------------------------| \
G---1010101010101010----------55555555----------|  \
D---1010101010101010-55555555-55555555-88888888-|  / X 2
A---8-8-8-8-8-8-8-8--55555555-33333333-88888888-| /
E--------------------33333333----------66666666-|/
 "Could you be with him...
e--33333333-33333333--------------------|
B--33333333-44444444-66666666-11111111--|\
G--33333333-33333333-77777777-22222222--| \
D--44444444-44444444-88888888-33333333--| / X 1 
A---------------------------------------|/
E---------------------------------------|
 "You Change your close and your hair...

Pre-Chorus
e------3---3~--|\            e--------------|\
B------3---4~--| \           B--------------| \
G------3---3~--|  \          G--------------|  \
D------5---5~--|  / X 2      D------3-------|  / X 1 
A--------------| /           A------3-------| /
E--------------|/            E------1-------|/            
"I'm uninvited...                 ... Inside"

Chorus
e---------------------------------------------|\ 
B---------------------------------------------| \ 
G---1010101010101010---------33333333---------|  \
D---1010101010101010-3333333-33333333-33333333|  / X 2
A---8-8-8-8-8-8-8-8--3333333-11111111-33333333| / 
E--------------------1111111----------11111111|/
 "I'm learning to fall...

Riff
e-----------------------------------------------------|\ 
B-----------------------------------------------------| \ 
G---1010101010101010---------33333333-----------------|  \
D---1010101010101010-3333333-33333333-33333333---|--5-|  / X 2
A---8-8-8-8-8-8-8-8--3333333-11111111-33333333---|--5-| / 
E--------------------1111111----------11111111---|--3-|/
 "I can't stop dreaming...                         Me"

Chorus (Fade out
e---------------------------------------------|\ 
B---------------------------------------------| \ 
G---1010101010101010---------33333333---------|  \
D---1010101010101010-3333333-33333333-33333333|  / Fade out... 
A---8-8-8-8-8-8-8-8--3333333-11111111-33333333| / 
E--------------------1111111----------11111111|/
 "I'm learning to fall...
Comments