Boyce Avenue - Only Girl Chords & Tabs

 

Only Girl Chords & Tabs

Boyce Avenue Chords & Tabs

Version: 1 Type: Tab

Only Girl Tab

   
Tabbed by Wesley dos Santos Conrado
e-mail: wesley_sk@hotmail.com


Tuning: D# G# C# F# B C#

r = release
/\ = slides

Intro: 2X (Finger Picking)

C#|--------0---------------0----------0---------------|
B |------4-----5r4-------4----------4-----------------|
F#|----5-----5---------------5----------5-------------|
C#|--3-----------------5----------5-------------------|
G#|------------------0----------3---------------------|
D#|---------------------------------------------------|

Verse:

C#|--------2--------------------0--------------------|
B |------0------------0-------0----------------------|
F#|----2------------0--------------------------------|
C#|--3----------2h3-------2h3------------------------|
G#|-------------0---------3--------------------------|
D#|--------------------------------------------------|

1º Main verse:

C#|--3---3-----0---0-------3---3-------3---3---------|
B |----0---4-0---4-----------0---4-0-----0---4-0-----|
F#|------------------2-------------------------------| 4X
C#|--3-----------------------------------------------|
G#|------------------------0-----------3-------------|
D#|--------------------------------------------------|

2º Main verse

C#|--0--0--0--0--0--0-----|
B |--0--0--0--0--0--0-----|
F#|--4--2--0--4--2--0-----|
C#|--3--2--2--3--2--2-----|
G#|--3--0--3--3--0--3-----|
D#|--1--------1-----------|
[ Tab from: http://www.guitartabs.cc/tabs/b/boyce_avenue/only_girl_tab.html ]
C#|--------2-----------------------------2---------------0-------------|
B |------0-------------------------------------------0-----------------|
F#|----2-------------------------------2---------------4---------------| 2X
C#|--3-3-3-3-3-3-3-3-3-3-3-3---------2---------------------------------|
G#|--------------------------2-2-2-0-0-0-0-0-0-0-0-3-3-3-3-3-3-3-3-----|
D#|--------------------------------------------------------------------|

Bridge:

C#|-----------------------------------0-------------|
B |--------0--------0--------0----0-----------------|
F#|------2--------4--------4--------0---------------|
C#|----3--------5--------5--------------------------|8X
G#|-----------------------------3-------------------|
D#|--1--------3--------5----------------------------|

I gonna make you fell...
(palm mute)                                          open...
C#|--------------------------------------------------0--\----|
B |--------------------------------------------------0--\----|
F#|--------------------------------------------------9--\----|
C#|--10--/--12--/--14--\--5--/--10--/--12--/--14--\--10-\----|
G#|--8---/--10--/--12--\--3--/--8---/--10--/--12--\--10-\----|
D#|--------------------------------------------------8--\----|

Like you´re the only one is in comand...
Open Strings
C#|--0--/--0--/--0--/--0--\----|
B |--0--/--0--/--0--/--0--\----|
F#|--2--/--4--/--5--/--9--\----|until the end...
C#|--3--/--5--/--7--/--10-\----|
G#|--3--/--5--/--0--/--10-\----|
D#|--1--/--3--/-----/--8--\----|