Boyce Avenue - Glycerine Chords & Tabs

 

Boyce Avenue Chords & Tabs

Version: 1 Type: Tab 0 ratings
1 star 2 stars 3 stars 4 stars 5 stars
comments

Glycerine Tab

-----------------------------------------------------------------------------
                     Glycerine (Bush cover) - Boyce Avenue
-----------------------------------------------------------------------------
I always wanted to play it acoustic but always found silly chords to make it happen...
This is exactly how he does it...with a few changes in the other versus (as in using the 
B string or E instead of G...but minor stuff)

VERSE:

e|-------------------------------------------------------------------------|
B|-------------------------------------------------------------------------|
G|---------0-----------0---------------------0----------------0------------|
D|-----5-----------0---------------------2------------------2--------------|
A|-------5-----------0---------------------2--------------3----------------|
E|---3-----------2---------------------0----------------0------------------|

Example line:
Must be your skin that I'm sinking in - Must be for real cause now I can feel

CHORUS:

[ Tab from: http://www.guitartabs.cc/tabs/b/boyce_avenue/glycerine_tab.html ]
e|----------------------------------------------------------|
B|----------------------------------------------------------|
G|---------0-----------0-----------0-----------0------------|
D|-----5-----------0-----------2-----------2----------------|
A|-------5-----------0-----------2-----------3--------------|
E|---3-----------2-----------0-----------0------------------|
                   Don't let the days go by

e|----------------------------------------------------------|
B|---------3---------3--------------------------------------|
G|---------------------0---------5--------------------------|
D|-----5-----------4-----------5---5------------------------|
A|-------5-------5-----------3------------------------------|
E|---3------------------------------------------------------|
   Glycerine                Glycerine (repeat x2)



BRIDGE PART IN NEXT VERSION...i really needed this tab and couldn't find it...i'll write 
the rest in a new version if I see some interest in this tab...so rate please and thanks
Comments