Boy Sets Fire - The Power Remains The Same Chords & Tabs

 

The Power Remains The Same Chords & Tabs

Boy Sets Fire Chords & Tabs

Version: 1 Type: Bass Tab 0 ratings
1 star 2 stars 3 stars 4 stars 5 stars
comments

The Power Remains The Same Bass Tab

   
THE POWER REMAINS THE SAME - Boy Sets Fire

By:dan schules (sminorxthreate@hotmail.com)

Drop D
Intro/verse
G|------------------------------------------------|
D|-0-0-12--xx--777-8-8-8--------------------------|
A|------------------------------------------------|
D|------------------------------------------------|
[ Tab from: http://www.guitartabs.cc/tabs/b/boy_sets_fire/the_power_remains_the_same_btab.html ]
chorus:
"And the power remains the same"
(I am of the new revolution)
G|-----------------------------------------------|
D|-----------------------------------------------|
A|----6-66--8-88--5-5-5-5--6-66--8-88------------|
D|-------------------------------------7-7-7-7---|

next part "racism..."
G|-----------------------------|
D|-----------------------------|
A|-----------------------------|
D|-0--0-1h2h1--0-0-0-1h2-1-----|

End with
G|-----------------------------|
D|-----------------------------|
A|-----------------------------|
D|-0-0--0000-00--000-0---------|

this tab is what is played on the album as far as the intro and verse....
the chorus is what the guitar plays...and so works just fine on bass
as well as the ending.....im sorry this isnt more exact but im a much more 
of a guitar player than bass....this will work absolutley fine tho with the 
song...
Comments