Boy Sets Fire - After The Eulogy Chords & Tabs

 

After The Eulogy Chords & Tabs

Boy Sets Fire Chords & Tabs

Version: 2 Type: Tab 0 ratings
1 star 2 stars 3 stars 4 stars 5 stars
comments

After The Eulogy Tab

-------------------------------------------------------------------------------
                           AFTER THE EULOGY - Boy Sets Fire
-------------------------------------------------------------------------------

By: Rafi Kurlansik
	knivesout@antisocial.com

Drop D Tuning.

h - hammer on
p - pull off
pm - palm mute
\ - slide to
x - harmonic

Intro - "Rise." (don't play harmonics here)
e|---------------------------------------------------|
B|---------------------------------------------------|
G|---------------------------------------------------|
D|--0--0-----------0-0--------------0--4--5---6-(x)--|
A|--0--0--0h5p0h6--0-0---0h5p0h6----0--4--5---6-(x)--|
E|--0--0-----------0-0--------------0--4--5---6-(x)--|
   pm...	   pm.		   pm......

Verse - Same guitar as intro, different structure.  Figure it out
[ Tab from: http://www.guitartabs.cc/tabs/b/boy_sets_fire/after_the_eulogy_tab_ver_2.html ]
PreChorus -
e|---------------------------------|
B|---------------------------------|
G|-0--7\9--\3\2---0--7\9\12--------|
D|-0--------------0----------------|
A|-0--5\7--\1\0---0--5\7\10--------|
E|-0--------------0----------------|

Chorus thing - Play intro, but do harmonics at end.

Where's Your anger...
e|------------------------------------------------------------|
B|------------------------------------------------------------|
G|----------------------------------0-7--------7-8-8-8-8-8\7--|
D|----------------------------------0-------------------------|
A|------5--7------5--7\10----later--0-5-later--5-6-6-6-6-6\5--|
E|-0-----------0--------------------0-------------------------|

End -
e|--------------------------------------------------------|
B|--------------------------------------------------------|
G|--------------------------------------------------------|
D|-0-0----0--0--0--0--0-0--0--0--0--0--0--0--0-0--0-0-0---|
A|-0-0----0--0--0--0--0-0--0--0--0--0--0--0--0-0--0-0-0---|
E|-0-0----0--0--0--0--0-0--0--0--0--0--0--0--0-0--0-0-0---|
				 pm....................

===============================================================================
Comments