Boy Kill Boy - Suzie Chords & Tabs

 

Suzie Chords & Tabs

Boy Kill Boy Chords & Tabs

Version: 1 Type: Tab

Suzie Tab

Intro:

E|----2-2---3-3---5-5-|
B|----3-3---5-5---7-7-|
G|----4-4---5-5---7-7-|  x 2
D|----4-4---5-5---7-7-| 
A|----2-2---3-3---5-5-|
E|--------------------|

Verse:

E|----2-2---3-3---5-5-|
B|----3-3---5-5---7-7-|
G|----4-4---5-5---7-7-|  x 8
D|----4-4---5-5---7-7-| 
A|----2-2---3-3---5-5-|
E|--------------------|

Pre-Chorus:
[ Tab from: http://www.guitartabs.cc/tabs/b/boy_kill_boy/suzie_tab.html ]
E|----3-3---2-2---3-3---2-2-----------------------------|
B|----3-3---3-2---3-3---3-3---7777-8888-1010101010101010|
G|----4-4---4-4---4-4---4-4---7777-7777-7-7-7-7-7-7-7-7-|
D|----5-5---4-4---5-5---4-4-----------------------------|
A|----5-5---2-2---5-5---2-2-----------------------------|
E|----3-3---------3-3-----------------------------------|

Chorus:

E|----3----5----0----5----|
B|----3----5----0----7----|
G|----4----5----0----7----|
D|----5----7----2----7----|
A|----5----7----2----5----|
E|----3----5----0---------|