Boy Hits Car - Rebirth Chords & Tabs

 

Rebirth Chords & Tabs

Boy Hits Car Chords & Tabs

Version: 1 Type: Tab 0 ratings
1 star 2 stars 3 stars 4 stars 5 stars
comments

Rebirth Tab

   
Artist: Boy Hits Car
Song: The Rebirth
Album: Boy Hits Car
Tabbed By: Mit

Tuning: C (C G C F G C)

Intro:

Guitar 1:
|-------------------------------------------|
|-------------------------------------------|
|-------------------------------------------|
|--12p0-0-10p0-0--12p0-0-10p0-0--12p0-10p0--|
|-------------------------------------------|
|-------------------------------------------|

Guitar 2:
|--0--0-0-0-0-0--0-0-0-0-0-0--0--0--0--0--0--0---0--0--0--0--0--|
|--0--0-0-0-0-0--0-0-0-0-0-0--0--0--0--0--0--0---0--0--0--0--0--|
|--7--7-7-7-7-9--9-9-9-9-9-10-10-10-10-10-10-12--12-12-12-12-12-|
|--7--7-7-7-7-9--9-9-9-9-9-10-10-10-10-10-10-12--12-12-12-12-12-|
|--0--0-0-0-0-0--0-0-0-0-0-0--0--0--0--0--0--0---0--0--0--0--0--|
|---------------------------------------------------------------|


Chorus:

|-------------------------------------------|
|-------------------------------------------|
|-------------------------------------------| x3
|-------------------------------------------|
|-------------------------------------------|
|--12p0-0-10p0-0--12p0-0-10p0-0--12p0-10p0--|

then;
|-------------------------------------------|
|-------------------------------------------|
|-------------------------------------------|
|-------------------------------------------|
|------------------0----5---5-----0--0---3--|
|--12p0-0-10p0-0---0----5---5-----0--0---3--|

then;
|-------------------------------------------|
|-------------------------------------------|
|-------------------------------------------| x3
|-------------------------------------------|
|-------------------------------------------|
|--12p0-0-10p0-0--12p0-0-10p0-0--12p0-10p0--|

then;
|-------------------------------------------|
|-------------------------------------------|
|-------------------------------------------|
|-------------------------------------------|
|-------------------------------------------|
|--12p0-0-10p0--0---12p0---14hp0---14p0h15--|


Verse:

Guitar 1:
|----------------------------------------------------------|
|----------------------------------------------------------|
|----------------------------------------------------------|
|--7--7----------9--9----------10-10--------12--12---------|
|--5--5----------7--7----------8--8---------10--10---------|
|----------------------------------------------------------|
[ Tab from: http://www.guitartabs.cc/tabs/b/boy_hits_car/rebirth_tab.html ]
Guitar 2: (halfway through verse)
|-------------------------------------------|
|-------------------------------------------|
|-------------------------------------------|
|--12p0-0-10p0-0--12p0-0-10p0-0--12p0-10p0--|
|-------------------------------------------|
|-------------------------------------------|


Bridge:
|-------------------------------------------|
|-------------------------------------------|
|-------------------------------------------|  repeat x4
|--12p0-0-10p0-0---12p0-0-10p0-0----x--x----|
|-----------------------------------x--x----|
|-----------------------------------x--x----|


Repeat verse and then play chorus

Middle 8 section: (“before we die”)

for the first part repeat the intro and then play:

Guitar 1:
|----------------------------------------------------------|
|----------------------------------------------------------|
|----------------------------------------------------------|
|--7--7-7-7-7--9--9-9-9-9--10--10-10-10-10-12-12-12-12-12--|
|--5--5-5-5-5--7--7-7-7-7--8---8--8--8--8--10-10-10-10-10--|
|----------------------------------------------------------|

Guitar 2:
|-------------------------------------------|
|-------------------------------------------|
|-------------------------------------------|
|--12p0-0-10p0-0--12p0-0-10p0-0--12p0-10p0--|
|-------------------------------------------|
|-------------------------------------------|

|-------------------------------------------|
|-------------------------------------------|
|-------------------------------------------|
|--14p0-0-10p0-0--14p0-0-10p0-0--14p0-10p0--|
|-------------------------------------------|
|-------------------------------------------|

|-------------------------------------------|
|-------------------------------------------|
|-------------------------------------------|
|--15p0-0-10p0-0--15p0-0-10p0-0--15p0-10p0--|
|-------------------------------------------|
|-------------------------------------------|

|-------------------------------------------|
|-------------------------------------------|
|-------------------------------------------|
|--17p0-0-10p0-0--17p0-0-10p0-0--17p0-10p0--|
|-------------------------------------------|
|-------------------------------------------|


Pre-Chorus: (applies only to last chorus)
|-------------------------------------------|
|-------------------------------------------|
|-------------------------------------------| repeat x2
|--12p0-0-10p0-0--12p0-0-10p0-0--12p0-10p0--|
|-------------------------------------------|
|-------------------------------------------|

Repeat chorus

Outro:
|-------------------------------------------|
|-------------------------------------------|
|-------------------------------------------| repeat x4
|-----------------------------------x--x----|
|-----------------------------------x--x----|
|--12p0-0-10p0-0---12p0-0-10p0-0----x--x----|
   PM____________________________________

Comments