Boy Hits Car - My Animal Chords & Tabs

 

My Animal Chords & Tabs

Boy Hits Car Chords & Tabs

Version: 1 Type: Tab 0 ratings
1 star 2 stars 3 stars 4 stars 5 stars
comments

My Animal Tab

   
Boy Hits Car - My Animal
Submitted By: Greg Ramirez
EMail: Gutterball@aol.com
Album: My Animal
Tuning: Drop D (D A D G B e)

Riff A:
--------------------------------|
--------------------------------|
--------------------------------|   12x
-7-9-10-7-10~-7-9~-7-10~-7-9-10-|
--------------------------------|
--------------------------------|

Riff B
-------------------------------------|
-------------------------------------|
-------------------------------------|   4x end on 12
-9--9h10p9-12--10--10h12p12-12-10-12-|
-------------------------------------|
-------------------------------------|
Riff A: 8x
Riff B: 4x end on 12

Riff C
----------------|      |--------------------|
----------------|      |--------------------|
-9--12-9--12-14-| 24x  |--------------------| 12x starting on
----------------|      |-7-7-7-7-7-9-7-7-12-| 12x of 1st part
----------------|      |--------------------|
----------------|      |--------------------|
[ Tab from: http://www.guitartabs.cc/tabs/b/boy_hits_car/my_animal_tab.html ]
Riff D
--------------------------------|
--------------------------------|
-----------------------------14-| 8x: on 8th time half 7's
-7-7-7-7-7-7-7-7-7-7-7-7-7-7-12-| and half 12/14's
--------------------------------|
--------------------------------|
Riff e
-----------------------------------------------------------|
-----------------------------------------------------------|
-----------------------------------------------------------| 4x
-10h12-12-12--16-17-19-17-16-12--12~-10h12-12-12--10-9-3-0-|
-10h12-12-12--16-17-19-17-16-12--12~-10h12-12-12--10-9-3-0-|
-10h12-12-12--16-17-19-17-16-12--12~-10h12-12-12--10-9-3-0-|

Riff F
--------------|             |---------------|
--------------|             |---------------|
--------------| 8x          |---------------|   4x
-10-12-12~--0-|             |------------12-|
-10-12-12~--0-|             |---------------|
-10-12-12~--0-|             |-10-12-12~--0--|

Riff e: 4x
Riff F: 8x/4x
Riff e: 8x

That's it: It took me a while but I finally figured it out.
Questions or comments e-mail Greg at Gutterball438@aol.com.
Comments