Boy Hits Car - Make Me Pure Replace Chords & Tabs

 

Make Me Pure Replace Chords & Tabs

Boy Hits Car Chords & Tabs

Version: 1 Type: Tab 0 ratings
1 star 2 stars 3 stars 4 stars 5 stars
comments

Make Me Pure Replace Tab

   
Song: "Make Me Pure"
Artist: Boy Hits Car
Album: My Animal
Tabbed by: Double D

Drop D (dadgbe)
b=bend
h=hammer

Verse
e--------------------------------------------------------------------
b--------------------------------------------------------------------
g--------11b--9--9b--8--8b--6--4-44-4h6------------------------------
d--------------------------------------------------------------------
a--------------------------------------------------------------------
d--------------------------------------------------------------------
(repeat as necessary)
Solo
e--------------------------------------------------------------------
b--------------------------------------------------------------------
g--------9h11-11--9h11-11--9h8--8h9-9--9h8-8----8h9-9--9h8-----------
d--------------------------------------------------------------------
a--------------------------------------------------------------------
d--------------------------------------------------------------------
[ Tab from: http://www.guitartabs.cc/tabs/b/boy_hits_car/make_me_pure_replace_tab.html ]
e--------------------------------------------------------------------
b--------------------------------------------------------------------
g--------8h9-9--8h9-9---8h6--6h8-8--8h6-6---4h6-6--4h6-6-------------
d---------------------------------------------------------4----------
a--------------------------------------------------------------------
d--------------------------------------------------------------------
(repeat once)

e--------------------------------------------------------------------
b---------------14-------------------------14------------------------
g--------9h11------11---13--9--------9h11------11---13---------------
d--------------------------------------------------------------------
a--------------------------------------------------------------------
d--------------------------------------------------------------------
(repeat as needed)

e--------------------------------------------------------------------
b--------------------------------------------------------------------
g--------------------------------------------------------------------
d-------4-4-4b-4b-4b---4-4-4b-4b-4b----------------------------------
a--------------------------------------------------------------------
d--------------------------------------------------------------------
(repeat)

chorus (make me pure)
e--------------------------------------------------------------------
b--------------------------------------------------------------------
g--------------------------------------------------------------------
d-----4---4---4---4---2--2-----4---4---4---4---4---------------------
a-----4---4---4---4---2--2-----4---4---4---4---4---------------------
d-----4---4---4---4---2--2-----4---4---4---4---4---------------------
(repeat)
Comments